Запрещают песни Цоя, Агата Кристи, Наутилус Помпилиус, Зиверт
Отвечаем в отдельной теме

System Of A Down - Forest, аккорды

Прокрутка
Тональность
Шрифт
100
 Tuning: Drop  D, 1 Step Down (C G C F A D) 
 
INTRO: 
|------------------------------------------------------------------| 
|------------------------------------------------------------------| 
|------------------------------------------------------------------| 
|-0-00000000000000-1-111-111-111-112-22222222222223-333-3333333333-| 
|------------------------------------------------------------------| 
|------------------------------------------------------------------| 
PM. .............. . ... ... ... ... .............. ... .......... 
 
|-----------------------------------------------------------------| 
|-------------------------------------------------6-6-6-6-6-6-6-6-| 
|-----------------------------------------------------------------| 
|-0-000-0000000000-1-111-11111111112-222-2222222223-3-3-3-3-3-3-3-| 
|-----------------------------------------------------------------| 
|-----------------------------------------------------------------| 
PM. ... .......... . ... ........... ... ......... 
 
BRIDGE: (play once then again w/ palm mute) 
|-------------------------------------------------| 
|-------------------------------------------------| 
|-------------------------------------------------| 
|-0-064-0-064-0-064-0-064-0-046-0-046-0-046-0-046-| 
|-0-064-0-064-0-064-0-064-0-046-0-046-0-046-0-046-| 
|-0-064-0-064-0-064-0-064-0-046-0-046-0-046-0-046-| 
 
VERSE: (palm mute chords during verse 2) 
|----------------------------------------------------------| 
|----------------------------------------------------------| 
|---------77777777--------88888888-------------------------| 
|-----4444------------5555---------0-064-0-064-0-064-0-064-| 
|-5555------------6666-------------0-064-0-064-0-064-0-064-| 
|----------------------------------0-064-0-064-0-064-0-064-| 
 
|----------------------------------------------------------| 
|----------------------------------------------------------| 
|---------88888888--------99999999-------------------------| 
|-----5555------------6666---------0-046-0-046-0-046-0-046-| 
|-6666------------7777-------------0-046-0-046-0-046-0-046-| 
|----------------------------------0-046-0-046-0-046-0-046-| 
 
VERSE B: (no ones or zeros, elevens and tens) 
|----------------------------------------------------------| 
|----------------------------------------------------------| 
|---------88888888--------99999999--------1010101010101010-| 
|-----5555------------6666------------7777-----------------| 
|-6666------------7777------------8888---------------------| 
|----------------------------------------------------------| 
 
|--------------------------| 
|--------------------------| 
|---------1111111111111111-| 
|-----8888-----------------| 
|-9999---------------------| 
|--------------------------| 
 
VERSE C: 
|-------------------------------------------------| 
|-------------------------------------------------| 
|-----7-------7-------8-------8-------9-------9---| 
|---4---4---4---4---5---5---5---5---6---6---6---6-| 
|-5-------5-------6-------6-------7-------7-------| 
|-------------------------------------------------| 
 
CHORUS: 
|------------------------------| 
|------------------------------| 
|------------------------------| 
|--------------0-0---1-1---5-5-| 
|-8-10-8-7-5-4-0-0---1-1---5-5-| 
|-8-10-8-7-5-4-0-0---1-1---5-5-| 
 
CHORUS END 1: 
|--------------| 
|--------------| 
|--------------| 
|--------------| 
|-8-10-8-7-5-4-| 
|-8-10-8-7-5-4-| 
 
CHORUS END 2: 
|---------------------------------------| 
|---------------------------------------| 
|---------------------------------------| 
|---------------------------------------| 
|-8-8-8-8-7-5--8-8-8-8-7-5--8-8-8-8-7-5-| 
|-8-8-8-8-7-5--8-8-8-8-7-5--8-8-8-8-7-5-| 
 
INTERLUDE: (palm mute) 
|-------------------------------------| 
|-------------------------------------| 
|-------------------------------------| 
|-------------------------------------| 
|-00-0-6-4-00-0-6-4-00-0-6-4-00-0-6-4-| 
|-00-0-6-4-00-0-6-4-00-0-6-4-00-0-6-4-| 
 
INTERLUDE 2: (palm mute) 
|-------------------------------------| 
|-------------------------------------| 
|-------------------------------------| 
|-------------------------------------| 
|-00-0-4-6-00-0-4-6-00-0-4-6-00-0-4-6-| 
|-00-0-4-6-00-0-4-6-00-0-4-6-00-0-4-6-| 
 
INTERLUDE 3: 
|--------------------------| 
|--------------------------| 
|--------------------------| 
|--------------8-8-8-8-7---| 
|-8-8-8-8-7-5--6-6-6-6-5-8-| 
|-8-8-8-8-7-5------------8-| 
 
INTERLUDE 4: 
|-------------------------------------------| 
|-------------------------------------------| 
|-------------------------------------------| 
|--------------8-8-8-8-7----10-10-10-10-8-7-| 
|-8-8-8-8-7-5--6-6-6-6-5-8---8--8--8--8-6-5-| 
|-8-8-8-8-7-5------------8------------------| 
 
INTERLUDE 5: 
|----------------------------------------------------------------------| 
|----------------------------------------------------------------------| 
|----------------------------------------------------------------------| 
|-10-10-10-10-8-7-12-12-12-12-10-8-13-13-13-13-12-10-15-15-15-15-13-12-| 
|--8--8--8--8-6-5-10-10-10-10--8-6-11-11-11-11-10--8-13-13-13-13-11-10-| 
|----------------------------------------------------------------------| 
 
INTERLUDE 6: (palm mute) 
|--------------| 
|--------------| 
|--------------| 
|-00-0-0000-00-| 
|-00-0-0000-00-| 
|-00-0-0000-00-| 
 
VERSE D: (palm mute) 
|-------------------------------------------------------------------| 
|-------------------------------------------------------------------| 
|-----7-------7-------8-------8-------9-------9-------10-------10---| 
|---4---4---4---4---5---5---5---5---6---6---6---6---7----7---7----7-| 
|-5-------5-------6-------6-------7-------7-------8--------8--------| 
|-------------------------------------------------------------------| 
 
CHORUS 2: 
|--------------------------------------------------------| 
|--------------------------------------------------------| 
|--------------------------------------------------------| 
|--------------00-00-0000-00-11-11-1111-11-55-55-5555-55-| 
|-8-10-8-7-5-4-00-00-0000-00-11-11-1111-11-55-55-5555-55-| 
|-8-10-8-7-5-4-00-00-0000-00-11-11-1111-11-55-55-5555-55-| 
PM .. .. .... .. .. .. .... .. .. .. .... .. 
 
OUTRO: 
|----------------| 
|----------------| 
|----------------| 
|--------------0-| 
|-8-10-8-7-5-4-0-| 
|-8-10-8-7-5-4-0-|
 
 

Видео