Запрещают песни Цоя, Агата Кристи, Наутилус Помпилиус, Зиверт
Отвечаем в отдельной теме

System Of A Down - Snowblind, аккорды

Прокрутка
Тональность
Шрифт
100
Riff A: 
 D|-------------------------------------------------------------------------| 
 A|-------------------------------------------------------------------------| 
 E|---------------------------------------------2-----2-2-2-2-2-2-----------| 
 C|---------------------------------------------2-----2-2-2-2-2-2-4-4-4-4-4-| 
 G|-4-4-4-4-6-6-6-6-7-7-7-7-7-7-7-4-4-4-4-2-2-1-0-----0-0-0-0-0-0-2-2-2-2-2-| 
 C|-------------------------------------------------------------------------| 
 
Riff B: (Verse) 
The pinch harmonics aren't exact and they're pretty random. 
 D|--------------------------------| 
 A|--------------------------------| 
 E|--------------------------------| 
 C|------------------------------0-| 
 G|--5-5--5-3-5----3-3-3-3-3-3-3---| 
 C|--------------------------------| 
"What you get is what you see...." 
 
Riff C:
 D|----------------------------------------------------------| 
 A|----------------------------------------------------------| 
 E|----------------------------------------------------------| 
 C|----------------------------------------------------------| 
 G|------------12--10-9-5-7--8-8-8-8-8-8--10--10-10-10-10-10-| 
 C|------------12--10-9-5-7--8-8-8-8-8-8--10--10-10-10-10-10-| 
"Cocaine!!" 
 
Then this again 

Riff A: 
 D|-------------------------------------------------------------------------| 
 A|-------------------------------------------------------------------------| 
 E|---------------------------------------------2-----2-2-2-2-2-2-----------| 
 C|---------------------------------------------2-----2-2-2-2-2-2-4-4-4-4-4-| 
 G|-4-4-4-4-6-6-6-6-7-7-7-7-7-7-7-4-4-4-4-2-2-1-0-----0-0-0-0-0-0-2-2-2-2-2-| 
 C|-------------------------------------------------------------------------| 
"Do do do do do do do do...." 
 
Then Verse 2:
Riff B: (Verse) 
|--- P.Н.---| |------P.M.----| 
 D|--------------------------------| 
 A|--------------------------------| 
 E|--------------------------------| 
 C|------------------------------0-| 
 G|--5-5--5-3-5----3-3-3-3-3-3-3---| 
 C|--------------------------------| 
 
Riff C:
 D|----------------------------------------------------------| 
 A|----------------------------------------------------------| 
 E|----------------------------------------------------------| 
 C|----------------------------------------------------------| 
 G|------------12--10-9-5-7--8-8-8-8-8-8--10--10-10-10-10-10-| 
 C|------------12--10-9-5-7--8-8-8-8-8-8--10--10-10-10-10-10-| 
"Cocaine!!" 
 
Then back to 
Riff A: 
 D|-------------------------------------------------------------------------| 
 A|-------------------------------------------------------------------------| 
 E|---------------------------------------------2-----2-2-2-2-2-2-----------| 
 C|---------------------------------------------2-----2-2-2-2-2-2-4-4-4-4-4-| 
 G|-4-4-4-4-6-6-6-6-7-7-7-7-7-7-7-4-4-4-4-2-2-1-0-----0-0-0-0-0-0-2-2-2-2-2-| 
 C|-------------------------------------------------------------------------| 
 
Next comes a bridge, which is a cool little arpeggio thing which can't quite 
figure out so when I play the song I just play the chords. They are: 
 
 C|--7--5--3--2-- 
 G|--5--3--1--0-- 
 C|-------------- 
 
After that there's another bridge 
 
Bridge B: (bass & guitar tacet) 
 D|-----------------------------------------------------| 
 A|-----------------------------------------------------| 
 E|-----------------------------------------------------| 
 C|-----------------------------------------------------| 
 G|--5--5--8-5-8--5--5--8-5-8--5--5-8-5-8-5-10-10-10-10-| 
 C|--5--5--8-5-8--5--5--8-5-8--5--5-8-5-8-5-10-10-10-10-| 
Don't you think I know what I'm doin'?…. 
 
Riff C:
 D|----------------------------------------------------------| 
 A|----------------------------------------------------------| 
 E|----------------------------------------------------------| 
 C|----------------------------------------------------------| 
 G|------------12--10-9-5-7--8-8-8-8-8-8--10--10-10-10-10-10-| 
 C|------------12--10-9-5-7--8-8-8-8-8-8--10--10-10-10-10-10-| 
 
Riff A:
 D|-------------------------------------------------------------------------| 
 A|-------------------------------------------------------------------------| 
 E|---------------------------------------------2-----2-2-2-2-2-2-----------| 
 C|---------------------------------------------2-----2-2-2-2-2-2-4-4-4-4-4-| 
 G|-4-4-4-4-6-6-6-6-7-7-7-7-7-7-7-4-4-4-4-2-2-1-0-----0-0-0-0-0-0-2-2-2-2-2-| 
 C|-------------------------------------------------------------------------| 
 
Then the first 3 chords of Bridge А (the arpeggio thing) 
 C|--7--5--3-- 
 G|--5--3--1-- 
 C|-----------
 
 

Видео