Зачем удалили Цоя?
Отвечаем в отдельной теме

System Of A Down - Atwa, аккорды

Прокрутка
Тональность
Шрифт
100
Riff 1:
   x4
e|-----------------------------------------------------------|
B|-----------------------------------------------------------|
G|---1------0-------3-------5--------6--------5-------3------|
D|-----------------------------------------------------------|
A|-----------------------------------------------------------|
D|-3---3-1---1/-5----5/-6----6/-8------8-6----6-5----5-3---3-|

Riff 2
   x4
e|-------------------------------|
B|-------------------------------|
G|-------------------------------|
D|-3-3-3-3-3-3-3---3-3-3-3-3-3-3-|
A|-3-3-3-3-3-3-3---3-3-3-3-3-3-3-|
D|-3-3-3-3-3-3-3---3-3-3-3-3-3-3-|

Riff 1 x3

Riff 3:
   x3
e|-------------------------------|----------------------------|
B|-------------------------------|----------------------------|
G|-------------------------------|----------------------------|
D|-3-3-3-3-3-3-3---3-3-3-3-3-3-3-|-3-3-3-3-3-3-3---3-3-3-3-3h4|
A|-3-3-3-3-3-3-3---3-3-3-3-3-3-3-|-3-3-3-3-3-3-3---3-3-3-3-3h4|
D|-3-3-3-3-3-3-3---3-3-3-3-3-3-3-|-3-3-3-3-3-3-3---3-3-3-3-3h4|

Riff 4:
   x4
e|----------|
B|----------|
G|----------|
D|-3-3-3--4-|
A|-3-3-3--4-|
D|-3-3-3--4-|

Solo:
e|---------------------------------------------------------------|
B|---------------------------------------------------------------|
G|---------------------------------------------------------------|
D|-3--3-3-1--1-1/-5--5-5/-6--6-6/--8---8--8-6--6-6-5--5-5-3--3-3-|
A|---------------------------------------------------------------|
D|---------------------------------------------------------------|

e|----------------------------------------------------------------
B|----------------------------------------------------------------
G|----------------------------------------------------------------
D|3-3-3-3-3-3-3-3-1-1-1-1-1-1-1-1-5-5-5-5-5-5-5-5-6-6-6-6-6-6-6-6-
A|----------------------------------------------------------------
D|----------------------------------------------------------------

  -------------------------------------------------------------------|
  -------------------------------------------------------------------|
  -------------------------------------------------------------------|
  --8-8-8-8-8-8-8-8--6-6-6-6-6-6-6-6-5-5-5-5-5-5-5-5-3-3-3-3-3-3-3-3-|
  -------------------------------------------------------------------|
  -------------------------------------------------------------------|

Riff 5:
   x4 (x2 under the solo)
e|----------------------------------------------------|
B|----------------------------------------------------|
G|----------------------------------------------------|
D|-3---3-1--1--5---5-6---6---8----8-6---6--5---5-3--3-|
A|-3---3-1--1--5---5-6---6---8----8-6---6--5---5-3--3-|
D|-3---3-1--1--5---5-6---6---8----8-6---6--5---5-3--3-|

Riff 3
Riff 4
 
 

Видео