Табула Раса - Любимая машина, аккорды

Прокрутка
Тональность
Шрифт
100
Intro: F#m A F#m A 

F#m
Вот моя деревня,
D C#m
Вот мой дом родной,
F#m
Это еще не все:
D C#m
Я живу с другой.

Bm A
Этой мой папа, он никогда не плачет.
D C#
Это когда совсем ничего не болит.

F#m
Это не подшипник,
A C#m
Это не страна,
F#m
Это и не любовь
A C#m
Просто пошёл ты на...

Bm A
Это когда друзья не играют в карты,
D C#
Это когда совсем ничего не болит.

Короткий ход перед припевом:
e|-------2--------2--
B|----2--------2-----
G|--2--------1-------
D|--------------------
A|--------------------
E|--------------------

F#m A
Я беру свою машину,
D Bm
Крепко жму на газ.
F#m A
Я люблю свою машину,
D Bm
Это суперкласс!
F#m A
Я люблю свою машину,
D Bm
Знаешь, почему?
F#m A
Нехорошо
D Bm
Что-то одному…

Проигрыш 1:
e|-------2--------0---------0------ x2
B|----2--------2---------2---------
G|--2--------2--------1------------
D|---------------------------------
A|---------------------------------
E|---------------------------------

F#m
Мимо пролетают
D C#m
Мухи и жуки.
F#m
Я обогнал восход —
D C#m
Это от тоски.

Bm A
Это когда друзья не играют в карты,
D C#
Это когда совсем ничего не болит.

F#m A
Я беру свою машину,
D Bm
Крепко жму на газ.
F#m A
Я люблю свою машину,
D Bm
Это суперкласс!
F#m A
Я люблю свою машину,
D Bm
Знаешь, почему?
F#m A
Нехорошо
D Bm
Что-то одному…

Соло:
F5 A5 F5 A5
e|-9-9-9-9-9-7--------------9-7--------------9-7-------
B|----------------10-10--10-------10-10----------10-10-
G|-----------------------------------------------------

F5 A5 F5 C#5
e|-9-9-9-9-9-7--------------9-7--------------9-12------
B|----------------10-10--10-------10-10------------9-9-
G|-----------------------------------------------------

Bm A
Это когда друзья не играют в карты,
D C#
Это когда совсем ничего не болит.

F#m A
Я беру свою машину,
D Bm
Крепко жму на газ.
F#m A
Я люблю свою машину,
D Bm
Это суперкласс!
F#m A
Я люблю свою машину,
D Bm
Знаешь, почему?
F#m A
Нехорошо
D Bm
Что-то одному…

Проигрыш до конца по кругу под последние строчки:
e|--------2--------2---------2--------2----
B|-----2--------2---------2--------2-------
G|-----------1--------2----------1---------
D|--4--------------------------------------

Знаешь почему...
Что-то одному…
Знаешь почему…
F#m
Снова одному…
 
 

Видео