Танцы Минус - Половинка, аккорды

Прокрутка
Тональность
Шрифт
100
Intro:
Riff 1
   Dm         A#        F        Am
G----------------------------------------|
D|-----12-------10----------5--------7---| x2
A|---12---12------8------3---3/---7---7/-|
E|-10---------6------6-1--------5--------|

Verse 1:
   Dm         A#        F        Am
G----------------------------------------|   
D|-----12-------10----------5--------7---|   
A|---12---12------8------3---3/---7---7/-|   
E|-10---------6------6-1--------5--------|   
У ночного огня под огромной луной  

   Dm         A#        F        Am
G----------------------------------------|   
D|-----12-------10----------5--------7---|   
A|---12---12------8------3---3/---7---7/-|   
E|-10---------6------6-1--------5--------|   
Тёмный лес укрывал нас зелёной листвой.

   Dm         A#        F        Am
G----------------------------------------|   
D|-----12-------10----------5--------7---|   
A|---12---12------8------3---3/---7---7/-|   
E|-10---------6------6-1--------5--------|   
Я тебя целовал у ночного огня,

                        w/distortion
   Dm         A#        F5       A5         D5      A#5     F5
G|------------------------------2--------|-7-------3-----------------------|
D|-----12-------10------3-------2--------|-7-------3-------3---------------|
A|---12---12------8----3--------0--------|-5-------1-------3---------------|
E|-10---------6------6-1-----------------|-----1---------------------------|
    Я тебе подарил                                          половинку себя

Verse 2: (боем)
Dm   A#      F         Am
У ночного огня, под огромной луной,
Dm   A#      F         Am
Ты смотрела в глаза мои, шептала слова.
Dm   A#      F         Am
Ты не верила мне, но любила меня,
Dm   A#     F5 A5 D5 A#5 F5 
Я тебе подарил половинку себя

Dm   A#      F         Am
То, что было забыто, то, что было, прошло,
Dm   A#      F         Am
Ты махала мне вслед бирюзовым платком.
Dm   A#      F         Am
Я тебя целовал у ночного огня,
Dm   A#     F5 A5 D5 A#5 F5 
Ты оставила мне половинку меня.

Solo:
  D5      A#             F5            Am               
G|7---7~--7h9p7--7---7h9p7--7---7h9p7--7---|  
D|-10---------10---------10-10-7-10--------|

Комментарий автора:

Если настроить гитару на пол тона выше, то играть будет легче!
 
 

Видео