Tea Party - Dreams Of Reason, аккорды

Прокрутка
Тональность
Шрифт
100
Artist: The Tea Party
Album: Splendor Solis
Song: Dreams of Reason

I can't take credit for this tab, but I noticed that there was not a tab for it on this site,
and felt that it was a too great of a song to not be one here, so I'm putting it on.
If you haven't heard it, you have to either d/l it or buy the album! (the whole album is amazing!)
The solo at the end (which unfortunately hasn't been worked out yet) is so
heartfelt that it gives me shivers... anyway, here goes:

Tuning: open G >> D G D G B D


D |-4--4h5p4---4--------4-4h5-/7-5---4s5-4----5---------------5--------
B |-0--0---------0---0--0-0--------7-------5----5-----------5---5------
G |-4--4-----4-----4----3-3----------------5------5-------5-------5----
D |-0--0----------------0-0----------------5--------5---5-----------5--
G |0--------------------0------------------0----------3----------------
D |--------------------------------------------------------------------

D |--------5----2s4-/7-5-2s4------------------------------------------
B |------5------3------------5----------------------------------------
G |----5--------0-----------------------------------------------------
D |--5----------------------------------------------------------------
G |2------------------------------------------------------------------
D |-------------------------------------------------------------------

D |0---0-0-0-----0--0-0-0---0----0-------------------0----------------
B |3---3-5-3-----3--3-5-3---3------0---0---0-1-3-3s5---0h1-0----------
G |0---0-0-0-----0--0-0-0---0--------7--------------------------------
D |4---4-4-4-----3--3-3-3---2------------3----------------------------
G |0---0-0-0-----0--0-0-0---0-----------------------------------------
D |-------------------------------------------------------------------
                                   
D |2-0-2-0-2-0-2-0-| 
 
 

Видео