Teen Suicide - Swallow, аккорды

Прокрутка
Тональность
Шрифт
100
Verse:
(f**ked up in my head... touching your shirt...)
e||----------------|----------------|----------------|----------------|
B||----------------|----------------|----------------|----------------|
G||0---------------|2-----0-----0---|----------------|2---4-0---------|
D||5-----4-----4---|0---------------|4-----5-----5---|0-----5-----5---|
A||2---2-----2---2-|2---2-----2---2-|2---------2---2-|2-----2---------|
E||3---------------|3---------------|3---3-----------|3-----3---3---3-|

e||----------------|----------------|----------------|----------------|
B||----------------|----------------|----------------|----------------|
G||0---------------|2-----0-----0---|----------------|2---4-0---------|
D||5-----4-----4---|0---------------|4-----2-----2---|0-----5-----5---|
A||2---2-----2---2-|2---2-----2---2-|2---------------|2-----2---------|
E||3---------------|3---------------|3---3-----3---3-|3-----3---3---3-|

Chorus:
(you make me feel bad about myself...)
e||----------------|----------------|----------------|----------------|
B||----------------|----------------|----------------|0---------------|
G||2-----0-----0---|4---------------|2---2-0---------|4---7-4-----4---|
D||0---------------|0-----2-----2---|0-----------4---|5---------5---5-|
A||2---2-----2---2-|2---2-----2---2-|2---------------|7---------------|
E||3---------------|3---------------|3---------3---3-|----------------|

e||----------------|----------------|----------------|----------------|
B||----------------|----------------|----------------|----------------|
G||2-----0-----0---|4---------------|2---2-0---------|0---------------|
D||0---------------|0-----2-----2---|0-----------4---|5---------------|
A||2---2-----2---2-|2---2-----2---2-|2---------------|2---------------|
E||3---------------|3---------------|3---------3---3-|3---------------| 

Комментарий автора:

Lyrics:

Fucked up in my head
Lay down in my bed
Touching your shirt
You know I want you bad
Watching you take off your pants

You make me feel
Bad about myself
I'm wasting my time
I can't be helped

Swallow my cum
I will make new friends
Taking off my clothes
Sober and aching i'm cold

You make me feel
Bad about myself
I'm wasting my time
I can't be helped           
 
 
Свернуть Распечатать

Видео