Технология - Нажми на кнопку, аккорды

Прокрутка
Тональность
Шрифт
100
 Intro
Один символ "-" это одна шестнадцатая нота.
1.|----------------||- ---------------|- --- --- ---------|
2.|----------------||- ---------------|- --- --- ---------|
3.|----------------||10-----7---------|10--10--- ---------|
4.|----------7-7-7-||- ---------7-7-7-|- --- --10---7-7-7-|
5.|----------------||- ---------------|- --- --- ---------|
6.|----------------||- ---------------|- --- --- ---------|

1.|- ---------------|- ---- -- ---------||- ---------------|
2.|- ---------------|10--8- -10---------||- ---------------|
3.|10-----7---------|- ---10-- ---------||10-----7---------|
4.|- ---------7-7-7-|- ---- -- ---7-7-7-||- ---------7-7-7-|
5.|- ---------------|- ---- -- ---------||- ---------------|
6.|- ---------------|- ---- -- ---------||- ---------------|

1.|- --- --- ---------|- ---------------|- ---- -- ---------||
2.|- --- --- ---------|- ---------------|10--8- -10---------||
3.|10--10--- ---------|10-----7---------|- ---10-- ---------||
4.|- --- --10---7-7-7-|- ---------7-7-7-|- ---- -- ---------||
5.|- --- --- ---------|- ---------------|- ---- -- ---------||
6.|- --- --- ---------|- ---------------|- ---- -- ---------||

Dm
Каждую ночь ты сидишь у окна,
F
Перемещая звезды,
A#
Каждую ночь тебе не до сна,
Gm
Все это так серьезно.
  Dm       F     A#              Gm
Я помню, я знаю, ветер в твоих руках,
  Dm          F    A#              Gm
Искусственным раем бредил в своих мечтах.
 
A#          C                      Dm
   Нажми на кнопку - получишь результат,
          Gm       F  A#
И твоя мечта осуществится.
         C                        Dm
Нажми на кнопку - ну что же ты не рад,
            Gm            F D#
Тебе больше не к чему стремиться.
 
Dm
В шорохе капель ночного дождя
F
Зашифровал надежду
A#
Выстроил мир, где ты у руля
Gm
Что ж ты не спишь как прежде
   Dm      F     A#                Gm
Скажи, почему ты медлишь исполнить план
   Dm    F    A#                  Gm
Считая минуты смотришь на пустой экран

A#          C                      Dm
   Нажми на кнопку - получишь результат,
          Gm       F  A#
И твоя мечта осуществится.
         C                        Dm
Нажми на кнопку - ну что же ты не рад,
            Gm            F D#
Тебе больше не к чему стремиться.
 
 
Свернуть Распечатать

Видео