Ten Foot Pole - Denial, аккорды

Прокрутка
Тональность
Шрифт
100
Song: Denial
Band: 10 Foot Pole
Album: Unleashed
tabbed by: Alberto zorrico3@yahoo.com

                                     
                           
intro  
G:------------------
D:------------------
A:--1>-2---1-1-2---- X 4
E:-------2-------2--

verse
G:------------------------------
D:--------------2>--------------
A:-----------------------2>-4>--
E:--0>-4>-0>-2>----2>-0>--------

chorus
G:---------------------------
D:-----4-2----------7--------
A:--2>-----4-2>-------2>-4>-- X 2
E:--------------2-4----------

intro
verse
chorus

over solo & verse
G:-----------------------------
D:-------------------------7>--
A:-2>----------2>-------4>----- X 4
E:----2>-0>-2>----2>-0>--------

chorus

end on
G:-----
D:-----
A:--2-- 
E:-----
 
 

Видео