Ten Foot Pole - Final Hours, аккорды

Прокрутка
Тональность
Шрифт
100
------------------------------------------------------------------
		FINAL HOURS - Ten Foot Pole
------------------------------------------------------------------

By: Dave Wilson (nougeypooge@hotmail.com for requests)

Intro 1 (x2)
G|---------------------------------------------------------------|
D|---------------------------------------------------------------|
A|-7-7-5-7--7-7-5-7--7-7-5-7--7-5-5-5-5--------------------------|
E|---------------------------------------------------------------|

Intro 2 (x2)
G|---------------------------------------------------------------|
D|---------------------------------------------------------------|
A|-3-3-----5-5-5-5--3-3-----2-2-2-2------------------------------|
E|-----3-3--------------3-3--------------------------------------|

Verse (x4)
G|---------------------------------------------------------------|
D|---------------------------------------------------------------|
A|-7-7-5-7-7-7-5-7---------5-5-5-5-------------------------------|
E|-----------------3-3-3-3---------------------------------------|

Chorus (x4)
G|---------------------------------------------------------------|
D|---------------------------------------------------------------|
A|-----------------8-8-8-8-3-3-----------------------------------|
E|-7-7-7-7-5-5-3-3-------------3-3-------------------------------|

Verse   (x4)
Chorus  (x2)
Intro 1 (x2)
Chorus  (x4)

Bridge (x8)
G|---------------------------------------------------------------|
D|---------------------------------------------------------------|
A|-----------------2-2-2-2-2-2-2-2--3-3-3-3-3-3-3-3-3------------|
E|-0-0-0-0-0-0-0-0------------------------------------3-3-3-3-3/0|


 
 

Видео