TequilaJazzz - Самолет, аккорды

Прокрутка
Тональность
Шрифт
100
Intro:
E|---------|
B|---------|
G|---------|
D|---------|5 раз
A|---7/8---|
E|---5/6---|

Куплет:
   E    G#   A
E|--------------|--5--|
B|--------------|--5--|
G|--------------|--6--|
D|---2-------6--|--7--|
A|---2-------6--|--7--|
E|---0-------4--|--5--|

E|-5-----5-------5-|
B|-5-----5--5----5-|
G|----6--------6---|
D|-----------------|
A|-----------------|
E|-----------------|

Припев:
E|-------------------------------------------------------------|
B|-------------------------------------------------------------|
G|----------9-9-9-9--------9--9--9--9-----------------10-11-11-|
D|-6--7--6--9-9-9-9--6--7--9--9--9--9--8--9--9--6666--10-11-11-|
A|-6--7--6--7-7-7-7--6--7--7--7--7--7--8--9--9--6666--8--9--9--|
E|-4--5--4-----------4--5--------------6--7--7--4444-----------|

   Только луна  провожает в полет   этот мой самолет

E|----------------------------      -----
B|----------------------------      -----
G|-10--11-11--11-11-11-11-11--      -----
D|-10--11-11--11-11-11-11-11-- - 8 раз ----- дальше идет интро
A|-8---9--9---9--9--9--9--9---      -----
E|------------9--9--9--9--9---      -----
           |_____________ (palm muted)
    лишь луна лишь луна

лайнер готов, подан трап, и контроль позади,
но сердце как бомба, даже пластик возле сердца кипит,
не торопись, дыши спокойно, лётным полем к самолёту иди,
кресло 16, место А, иллюминатор, и пристёгнут ремень,
и сосед уже спит

только луна провожает в полёт этот мой самолёт,
только луна и кивание звёзд - ослепительных звёзд,
тёмная ночь, и нескоро рассвет, через 100 сигарет,
время пришло, здесь меня уже нет, здесь осталась одна лишь луна

вызова кнопка, звонок, стюардесса бледна,
но дети и женщины смогут покинуть салон,
пластик у сердца, в закипающем эфире война,
у соседа инсульт, второй пилот истерит, а командир - молодец,
дисплей, штурвал, микрофон

только луна провожает в полёт этот мой самолёт,
только луна и кивание звёзд - ослепительных звёзд,
тёмная ночь, и нескоро рассвет, через 100 сигарет,
время пришло, здесь меня уже нет, здесь осталась одна лишь луна

раннее утро, туман, холодный северный порт,
но никакой не Стокгольм, а Ленинградская военная часть,
холодный ветер в проём, за чёрной маской глаза,
                 и для него это спорт,
я для него только цель, за первым залпом - второй,
его я слышал ещё, затем была тишина

только луна провожает в полёт этот мой самолёт,
только луна и кивание звёзд - ослепительных звёзд,
тёмная ночь, и нескоро рассвет, через 100 сигарет,
время пришло, здесь меня уже нет, здесь осталась одна лишь луна
 
 

Видео