Testament - Return To Serenity, аккорды

Прокрутка
Тональность
Шрифт
100
Testament - Return To Serenity
Tabbed By: wayne
EMail: mudknot_slayer2002@hotmail.com


  guitar 1     guitar 2 (play over what guitar 1 is playing)
e|------------|----8---7---5---------12---10--8--------17-----15--12-|
B|------------|------------------------------------------------------|
G|------------|--9---7-----5------12---10-----9-----17-----16-----14-|
D|------2---3-|------------------------------------------------------|
A|--0---------|------------------------------------------------------|
E|------------|------------------------------------------------------|

  guitar 1
e|---------------------------------------|--------------------------|
B|---------------------------------------|--------0-----------------|
G|------------------------h-p------------|------0---0-------0-------|
D|----2--3-3~5--3-2-3-3--2>310---------10=hammer on             that's all I got right now when I get the
p
 
 

Видео