The Beatles - Michelle, аккорды

Прокрутка
Тональность
Шрифт
100
capo 5th fret
 
[Intro] / [Interlude]
  Cm     Cmmaj7   Cm7     Cm6      Fmadd9  Fm (Fm7) G
  1 + 2 + 3 + 4 +  1 + 2 + 3 + 4 +  1 + 2 + 3 + 4 +  1 + 2 + 3 + 4 +
e|----3-------3---|----3-------3---|----3---1-------/3---3---3-3-3---|
B|----4-------4---|----4-------4---|----1-------4---/3---3---3-3-3---|
G/5-------4-------|3-------2-------|1---------------|0---0---0-0-0---|
D|----------------|----------------|----------------|----------------|
A|----------------|----------------|----------------|----------------|
E|----------------|----------------|----------------|----------------|
  (bass) – no capo
  1 + 2 + 3 + 4 +  1 + 2 + 3 + 4 +  1 + 2 + 3 + 4 +  1 + 2 + 3 + 4 +
G|----------------|----------------|----------------|----------------|
D|------------2---|3---------------|----------------|----------------|
A|3---------------|------------3---|----------------|3---------------|
E|----------------|----------------|1---------------|----------------|
 
[Outro]
  Adim7            C       Adim7    C
  1 + 2 + 3 + 4 +  1 + 2 + 3 + 4 +  1 + 2 + 3 + 4 +
e|----------------|----3-------2---|----3---3-3-3---|
B|1---4---7---4---|3---3---1---1---|3---3---3-3-3---|
G|2---5---8---5---|0---0---2---2---|0---0---0-0-0---|
D|1---4---7---4---|0-------1-------|0---------------|
A|----------------|----------------|----------------|
E|----------------|----------------|----------------|
 
---------------------------------------------------------------------------
 
[Intro]
| Cm Cmmaj7 | Cm7 Cm6 | Cmadd9      Cm Cm7 | C |
 
 
[Verse]
C        F7#9
Michelle, ma belle
Bb6           [Outro] Adim7       C
These are words that go together well
Adim7 C
My  Michelle
 
 
[Verse]
C        F7#9
Michelle, ma belle
Bb6       [Outro] Adim7          C
Sont les mots qui vont tres bien ensemble
Adim7       C
Tres bien ensemble
 
 
[Middle 8]
  Fm
I love you, I love you, I love you
Eb7                   Ab
 That's all I want to say
G7              Fm
 Until I find a way
         [Intro] / [Interlude] 
I will say the only words I know that you'll understand
 
 
[Verse]
C        F7#9
Michelle, ma belle
Bb6       [Outro] Adim7          C
Sont les mots qui vont tres bien ensemble
Adim7       C
Tres bien ensemble
 
 
[Middle 8]
  Fm
I need to, I need to, I need to
Eb7                 Ab
 I need to make you see
G7                    Fm
 Oh, what you mean to me
       [Intro] / [Interlude]
Until I do I'm hoping you will know what I mean
 
 
[Solo] (= verse)
| C | F7#9 | Bb | Adim7 | C Adim7 | C |
 (I love you ...)
 
 
[Middle 8]
  Fm
I want you, I want you, I want you
Eb7                  Ab
 I think you know by now
C                    Fm
 I'll get to you somehow
        [Intro] / [Interlude]
Until I do I'm telling you so you'll understand
 
 
[Verse]
C        F7#9
Michelle, ma belle
Bb6        [Outro] Adim7         C
Sont les mots qui vont tres bien ensemble
Adim7       C
Tres bien ensemble
 
 
[Outro]
          [Intro] / [Interlude]
I will say the only words I know that you'll understand,
C
My Michelle
 
| C | F7#9 | Bb | Adim7 | C Adim7 | C |
 (I love you ...)
 
 
Свернуть Распечатать

Видео