The Doors - Maggie M'Gill, аккорды

Прокрутка
Тональность
Шрифт
100
e|-------------------------------5------------------------------------|
B|--------------------------------------------------------------------|
G|-7^------------7---7^-----------------7--7^-----------7--7^---------|
D|-----7--7----------------7-------------------7--7-------------7---7-|
A|--------------------------------------------------------------------|
E|--------------------------------------------------------------------|

e|---------------5---------------------------------------5------------------|
B|--------------------------------------------------------------------------|
G|--7--7^----------------7--7^--------------7---7^-------------7--7^--------|
D|---------7----------------------7---7-------------7-----------------7---7-|
A|--------------------------------------------------------------------------|
E|--------------------------------------------------------------------------|
Miss Maggie M'Gill she lived in a hill her daddy got

e|--------------5-----------------------------------------------------------|
B|--------------------------------------------------------------------------|
G|-7--7^--------------7---7^--------------7---7^-------------7---7^---------|
D|---------7-------------------7---7--------------7----7--------------7---7-|
A|--------------------------------------------------------------------------|
E|--------------------------------------------------------------------------|
Drunk and left her the will

e|--------------5-|
B|----------------|
G|--7--7^---------|
D|----------7-----|
A|----------------|
E|----------------|

   (Dm)                               (Am)
So     she went down, down to "Tangie Town

e|----------------5~~~~~~~----------------------|
B|----------------------------------------------|
G|---7^---------------------------7^------------|
D|-----------7--------------------------7~~~~~--|
A|----------------------------------------------|
E|----------------------------------------------|

     (C)                         (D) (Am)
People down there really like to get it on
 (Am)
Now, if you're sad and your feelin' blue,
Am
Go out and buy a brand new pair of shoes,
   (Dm)                           (Am)
And    you go down, down to "Tangie Town."
 (C)                               (D)         (Am) (Dm) (Am)
The people down there really like to get it on, get it on.

e|------------------------------------------------------------------------5-|
B|--------------------------------------------------------------------------|
G|---7^------------7^----------7-7^-----------7-7^--------------7--7^-------|
D|--------7--7---------7---7----------7--7------------7---7------------7----|
A|--------------------------------------------------------------------------|
E|--------------------------------------------------------------------------|

e|--------------------------------5--------------------------------------5-|
B|-------------------------------------------------------------------------|
G|---7--7^------------7--7^------------7---7^--------------7---7^----------|
D|----------7---7------------7-----------------7---7---------------7-------|
A|-------------------------------------------------------------------------|
E|-------------------------------------------------------------------------|
Illigetimate song of a rock and roll star

e|------------------------------------------------------------------------5-|
B|--------------------------------------------------------------------------|
G|--7---7^------------7---7^-------------7---7^-------------7---7^----------|
D|----------7---7-------------7---7--------------7---7--------------7-------|
A|--------------------------------------------------------------------------|
E|--------------------------------------------------------------------------|
Illigetimate son of a rock and roll star

e|-------------------------------5-------------------------------------5-|
B|-----------------------------------------------------------------------|
G|--7---7^-----------7---7^------------7---7^-------------7--7^----------|
D|---------7---7-------------7------------------7----7-----------7-------|
A|-----------------------------------------------------------------------|
E|-----------------------------------------------------------------------|
Mom and dad in the back of a rock and roll car

e|------------------------------5---------------------------|
B|----------------------------------------------------------|
G|--7---7^-----------7--7^----------------7----7^-----------|
D|----------7--7------------7-----------------------7-----7-|
A|----------------------------------------------------------|
E|----------------------------------------------------------|

Yeaaaah
e|----------------------------------------------------|
B|----------------------------------------------------|
G|---7--7--7^-----5---------------7^------------------|
D|----------------------------------------------7---7-| x5
A|----------------------------------------------------|
E|----------------------------------------------------|

e|------------5-----------------------------------------5-|
B|--------------------------------------------------------|
G|----7^/5------------7^/5----------------7---7^----------|
D|-----------------------------7--7----------------7------|
A|--------------------------------------------------------|
E|--------------------------------------------------------|

Комментарий автора:

^ = bend  ( hold for atleast 1 sec )
/ = down slide
 
 
Свернуть Распечатать

Видео