The Four Aces - Mr Sandman, аккорды

Прокрутка
Тональность
Шрифт
100
Intro: Palm Mute all Chords Except ones with
e|------0-4-2-0---------2-5-4--------0-4-2-0---------2-5-4--|
B|----2---------2-----3------------2---------2-----3--------|
G|--2-------------2-4------------2-------------2-4----------|
D|----------------------------2-----------------------------|
A|----------------------------------------------------------| 
E|----------------------------------------------------------|

  A     Ab
Mr Sandman Bring me a dream
Db                Gb
Make him the Cutest that I've ever seen
B               E
Give him two lips like roses and clover 
A                      F     E
Then tell him that his lonesome nights are over

A       Ab
Sandman ... im so alone
Db             Gb
Dont have no body to call my own
B               D
So Please Turn on your magic Beans
B      D       A    
Mr sandman bring me a dream

e|------0-4-2-0---------2-5-4--------0-4-2-0---------2-5-4--|
B|----2---------2-----3------------2---------2-----3--------|
G|--2-------------2-4------------2-------------2-4----------|
D|----------------------------2-----------------------------|
A|----------------------------------------------------------|
E|----------------------------------------------------------|

  A     Ab
Mr Sandman Bring me a dream
Db                Gb
Make him the Cutest that I've ever seen
B               E
Give Him the word that Im not a Rover
A                      F     E
Then tell him that his lonesome nights are over

A       Ab
Sandman ... im so alone
Db             Gb
Dont have no body to call my own
B               D
So Please Turn on your magic Beans
B      D       A   
Mr sandman bring me a dream

e|-------------9-7-------------2-5-4------2-5-4-2-0---------2-0--|
B|--------7-10-----10-7------3----------3-----------3-----3------|
G|--4-6-7---------------7--4----------4---------------2-4--------|
D|---------------------------------------------------------------|
A|---------------------------------------------------------------|
E|---------------------------------------------------------------|

No Palm Mute For Rest

A              Ab
Enter sandman ah-yeah Bring me a knife
Db                 Gb
with a pair of eyes with a frightening gleem
B              E
Give him a Beard and Empty Beer Cans
A -----No Guitar---------- F     E
And long wavy hair like Pat the Wolfman

A       Ab
Mr Sandman  Someone to Dread
Db                Gb
Someone who's Creepy and After my head
B               D
So Please Turn on your magic Beans
B       D      B         D
Mr Sandman Bring us, please please bring us 
B          D     A
Mr Sandman Bring Us a Dream

Комментарий автора:

Chords Used:
  A Ab  B  D  Db E  F  Gb
e------------------------
B------------------------
G-------4--7--6----------
D-7--6--4--7--6--2--3--4-
A-7--6--2--5--4--2--3--4-
E-5--4-----------0--1--2-
 
 

Видео