The Music - The People, аккорды

Прокрутка
Тональность
Шрифт
100
The People by The Music

WAaaaaaayy too easy to play. You just need a couple of good pedals
including a wah and phaser(and make the notes inaudible) . 

Intro

E|-------------------------|
B|-------------------------|
G|-------------------------|
D|-------------------------|
A|-3-3-3-3-5--3-3-3-3-5----|
E|----------------------b3-|

Verse 

E|-------------|
B|-------------|
G|-------------|
D|-------------|
A|-3h5--3h5----|
E|----------b3-|

Chorus

E|---------------------------|
B|---------------------------|
G|---------------------------|
D|---------------------------|
A|-3h5-5-5p3--3-5-5p3-3h5----|
E|------------------------b3-|

Bridge

E|-------------------------------|
B|-------------------------------|
G|-------10-------------10-------|
D|-10h12----12-10-10h12----12-10-|
A|-------------------------------|
E|-------------------------------|
 
 

Видео