The Specials - Running Away, аккорды

Прокрутка
Тональность
Шрифт
100
Intro:		
[E--12--10------12--10--15--
B----------12--------------
G--------------------------
D--------------------------
A--------------------------
E--------------------------

E--2/3----3--2/3----3--2/3----2--0--0---0--2--2---2--
B--2/3--3----2/3--3----2/3--3----1----1----3----3----
G----------------------------------------------------
D----------------------------------------------------
A----------------------------------------------------
E----------------------------------------------------

Verse/Chorus:	
E--7-7-7-7-7-7-7-7--8-8-8-8--10-10-10-10--
B--8-8-8-8-8-8-8-8--8-8-8-8--10-10-10-10--
G--7-7-7-7-7-7-7-7--9-9-9-9--11-11-11-11--
D-----------------------------------------
A-----------------------------------------
E-----------------------------------------]
 
 

Видео