The Specials - Monkey Man (bass), аккорды

Прокрутка
Тональность
Шрифт
100
Intro 1:	
[G------------------------
D----------------------5-
A--5--3-----3--5---------
E-----------3-----------

Intro 2/Chorus:	
G----------------------------------------------------------------
D-55------55------55------55-------------------------------------
A------55------55------55------55--333--5-7-5-3-2-----7-5--------
E--------------------------------------------------------------3-

Verse:		
G-----------------------------------------
D-----------------------------------------
A-----7-5------7-5--33-5-7-5-3-2-----7-5--
E-33------33----------------------------3-

Chorus:		
G---------------------------------------------------------------
D-55------55------55------55------------------------------------
A------55------55------55------55--333--5-7-5-3-2---7-5---------
E-------------------------------------------------------------3-]

For the breakdown part just play the verse.
 
 

Видео