The Specials - My Tears Come Falling Down Like Rain, аккорды

Прокрутка
Тональность
Шрифт
100
Intro:		
[E--8/10--10-10-8--8/10-----------
B-----------------------10-10-8--
G--------------------------------
D--------------------------------
A--------------------------------
E--------------------------------

Verse and chorus:
E--7-7-7-7-7-7-7-7--8-8-8-8--10-10-10-10--
B--8-8-8-8-8-8-8-8--8-8-8-8--10-10-10-10--
G--7-7-7-7-7-7-7-7--9-9-9-9--12-12-12-12--
D-----------------------------------------
A-----------------------------------------
E-----------------------------------------

Bridge:		
E--3-3-3-3-3-3-3-3--0-0-0-0--2-2-2-2--
B--0-0-0-0-0-0-0-0--1-1-1-1--3-3-3-3--
G--0-0-0-0-0-0-0-0--0-0-0-0--2-2-2-2--
D--0-0-0-0-0-0-0-0--2-2-2-2--0-0-0-0--
A--2-2-2-2-2-2-2-2--3-3-3-3--0-0-0-0--
E--3-3-3-3-3-3-3-3--------------------]
 
 

Видео