Thom Yorke - Atoms For Peace, аккорды

Прокрутка
Тональность
Шрифт
100
e|--------------------------------------------------------------------------|
B|--------------------------------------------------------------------------|
G|--------------------------------------------------------------------------|
D|-----------------------6---------------------6----------------------------|
A|------6-----------6--------6------------6---------6-----------------------|
E|--4---------8----------------------4----------------------8-----4---------|
                                       
e|--------------------------------------------------------------------------|
B|--------------------------------------------------------------------------|
G|--------------------------------------------------------------------------|
D|-----------6--------------------------6-----------------------------------|
A|--6-------------------6----------6---------6------------------------------|
E|------8---------8-----------6--------------------6------------------------|

Solo:
e|--------------------------------------------------------------------------|
B|--------------------------------------------------------------------------|
G|--------------------------------------------------------------------------|
D|--------------------------------------------------------------------------|
A|--4--4---4---4----4----4-----4----3---------------------------------------|
E|--------------------------------------------------------------------------| x2
 
 

Видео