Thorogood George - Bad To The Bone, аккорды

Прокрутка
Тональность
Шрифт
100
Main Riff:
e|----------------------|
B|----------------------|
G|---0--0--5b--0--3--0--|
D|---0--0--5b--0--3--0--|
A|----------------------|
E|----------------------|

e|----------------------|
B|----------------------|
G|---0--0--5b--0--3--0--|
D|---0--0--5b--0--3--0--|
A|----------------------|
E|----------------------|
 
 

Видео