Thorogood George - Bad To The Bone, аккорды

Прокрутка
Тональность
Шрифт
100
Gtr I [DGDGBD] - 'Overdrive Electric with slide'

Intro:

Gtr I:  Q.=100 12/8
  Е Е Е Е Е Е    q  е Q.   Е Е Е Е Е Е    q  Е Q.   Е Е Е Е Е Е
|--------------|-0-----------0----------|-0-----------0------------|
|---0---5-0-3/-|-0-----------0---5-0-3/-|-0-----------0---5-0-3/---|
|---0-0-5-0-3/-|-0-----------0-0-5-0-3/-|-0-----------0-0-5-0-3/---|
|---0-0-5-0-3/-|-0-----------0-0-5-0-3/-|-0-----------0-0-5-0-3/---|
|--------------|------------------------|--------------------------|
|--------------|------------------------|--------------------------|

  q  Е Q.   Е Е Е Е Е S  S    Q.   +Е   Q   Q  Е Е Е Е
|-0-----------0------------||-0----(0)-15--0-----------|
|-0-----------0---5-0-3s12-||-0----(0)-15--0-----5-0-3/-|
|-0-----------0-0-5-0-3s12-||-0----(0)-----0---0-5-0-3/-|
|-0-----------0-0-5-0-3s12-||-0----(0)---------0-5-0-3/-|
|--------------------------||---------------------------|
|--------------------------||---------------------------|

           ~~~~~~~
  Е  Н     Е  +Q   Е Е Е Е    Е  Е  Е  Е  Е  Е  Q   Е Е Е Е
|-0-------------------------|---------12------------0--------|
|-0-11s===12-(12)----5-0-3/-|-0-11s12----12---------0-5-0-3/-|
|-0-11s===12-(12)--0-5-0-3/-|-0-11s12-------12-12---0-5-0-3/-|
|-0-11s===12-(12)--0-5-0-3/-|-0----------------12---0-5-0-3/-|
|---------------------------|--------------------------------|
|---------------------------|--------------------------------|

                             Verse 1:
           ~~~~~~~
  Е  Н     Е  +Q   Е Е Е Е    q  Е Q.   Н.        Wx6
|-0------------------------||-0-----------------|--------|
|-0-11s===12-(12)----5-0-3-||-0-----------------|--------|
|-0-11s===12-(12)--0-5-0-3-||-0-----------------|--------|
|-0-11s===12-(12)--0-5-0-3-||-0-----------------|--------|
|--------------------------||-------------------|--------|
|--------------------------||-------------------|--------|

                                                 Verse 2:
  н.      Q  Е Е Е Е     q  Е Q.   Q  Е Е Е Е  6x q  Е Q.   Н.        Wx5
|--------------------||------------------------||-0-----------------|----------|
|------------0-5-0-3-||о-0------------0-5-0-3-о||-0-----------------|----------|
|------------0-5-0-3-||--0------------0-5-0-3--||-0-----------------|----------|
|------------0-5-0-3-||--0------------0-5-0-3--||-0-----------------|----------|
|--------------------||о----------------------о||-------------------|----------|
|--------------------||------------------------||-------------------|----------|
|- Riff 1          --||- Riff 2              ----------------------------------|

Riff 1
Riff 2 x4

  q  Е Q.   Е Е Е Е Е S  S
|-0-----------0------------|
|-0-----------0---5-0-3s12-|
|-0-----------0-0-5-0-3s12-|
|-0-----------0-0-5-0-3s12-|
|--------------------------|
|--------------------------|
|-Riff 3

                           Guitar Solo:
  Н.      +Q   Е Е Е   Е    Q.   +Е   Q   Q  Е Е Е Е
|-0-------(0)--------/12-||-0----(0)-12--------------|
|-0-------(0)--0-5-0-/12-||-0----(0)-12---0----5-0-3-|
|-0-------(0)--0-5-0-/12-||-0----(0)------0--0-5-0-3-|
|-0-------(0)--0-5-0-----||-0----(0)------0--0-5-0-3-|
|------------------------||--------------------------|
|------------------------||--------------------------|
              end Riff 3-|

        ~~~~~~~
  Е  Е  Е  +Q.    Q   Е Е Е a Е
|-------------------------------|
|-0------------------0---0------|
|-0-11s12-(12)---12--0-3-0------|
|-0-11s12-(12)---12--0-3-0-3s4--|
|-------------------------------|
|-------------------------------|

  Е  Е  Е  Е  Е  Е  Q   Е  Е Е Е   Е  Q   Q   Е Q  Е  Е Е Е
|---------12---------------------|---/3--/3--/3-0-----------|
|------------12------------------|-0-/3--/3--/3-0--0--------|
|-0-11s12-------12-12--0----0-3--|-0-/3--/3--/3-0--0----0-3-|
|-0-11s12----------12--0-/3-0-3--|-0-----------------/3-0---|
|--------------------------------|--------------------------|
|--------------------------------|--------------------------|

                                      ~~~~~~~~~~~~~~~~~~~
  Е Е Е  Q   Е Q  Е Е Е  Е   Е  Н     Е  Q   Е  Е  Е  Е
|--------------------------|-0--------------------------|
|-0------------0--0--------|-0--------------------------|
|-0-2s3-/3--/3-0--0-3-0-/3-|-0-11s===12-12--12-12-12-12-|
|-0-2s3-/3--/3-0--0-3-0-/3-|-0-11s===12-12--12-12-12-12-|
|--------------------------|----------------------------|
|--------------------------|----------------------------|

 ~~~~~~~~~~~~~~~~~~~~~~~~~~~~~~~~~~~~~
   Е  Е  Е  Е  Е  Е  Е  Е  Е  Е  Е  Е
|-------------------------------12-----|
|----------------------------12----12--|
|-12-12-12-12-12-12-12-12-12-----------|
|-12-12-12-12-12-12-12-12-12-----------|
|--------------------------------------|
|--------------------------------------|

   ~~~~~~~~~~~~~~~~~~~~~~~~~~~~~~~~~~~~~~~~~~~~~~~~~~~~~~~~~~~~~~~~~~~~~~~~~~
   Е  Е  Е  Е  Е  Е  Е  Е  Е  Е  Е  Е    Е  Е  Е  Е  Е  Е  Е  Е  Е  Е  Е  Е
|-------------------------------12----|-------------------------12----------|
|----------------------------12----12-|----------------------12----12-------|
|-12-12-12-12-12-12-12-12-12----------|-12-12-12-12-12-12-12----------12-12-|
|-12-12-12-12-12-12-12-12-12----------|-12-12-12-12-12-12-12----------------|
|-12-12-12----------------------------|-12-12-12-12-12-12-------------------|
|-------------------------------------|-------------------------------------|

 ~~~~~~~~~~~~~~~~~~~~~~~~~~~~~~~~~~~~~
   Е  Е  Е  Е  Е  Е  Е  Е  Е  Е  Е  Е
|-------------------------12-----------|
|-12-12----------------12----12--------|
|-12-12-12-12-12-12-12----------12-12--|
|-------12-12-12-12-12----------12-12--|
|----------12----12--------------------|
|--------------------------------------|

   Е  Е  Е       Е       Е  Е  Е  Е  Е  Е  Е Е
|-------------------------------------------0--|
|-------------------------------------------0--|
|-12-12-11b11.5-11b11.5-12-12-12-12-12-12-0-0--|
|-12-12-11b11.5-11b11.5-12-12-12-12-12-12-0-0--|
|----------------------------------------------|
|----------------------------------------------|


  Q.   +Е   Е  Е Q.   Е Е   Е   Н.      +Q   Е Е Е Е
|-0----(0)-----0-0--------/12-|-0-------(0)-----------||
|-0----(0)-----0-0----0---/12-|-0-------(0)--0-5-0-3--||
|-0----(0)--4--0-0----0-0-/12-|-0-------(0)--0-5-0-3--||
|-0----(0)-(4)-0-0----0-0-----|-0-------(0)--0-5-0-3--||
|-----------------------------|-----------------------||
|-----------------------------|-----------------------||

 Verse 3:
  q  Е Q.   Н.        Wx5
|-0-----------------|--------|
|-0-----------------|--------|
|-0-----------------|--------|
|-0-----------------|--------|
|-------------------|--------|
|-------------------|--------|

Riff 1
Riff 2 x3
Riff 3

 Sax Sоlо:
||--0-------(0)-----------||
||о-0-------(0)----5-0-3-о||
||--0-------(0)--0-5-0-3--||
||--0-------(0)--0-5-0-3--||
||о----------------------о||
||------------------------||

  Е a Е Е Е Е Е Е Е Е Е Е Е   Е  Е  a  S  S  S S +Q   +Q   Е Е Е  Е
|-0-----3---3-3-3-5-5-------|-0-15s13s15-------------------5--------|
|-0-1s3---3-3-3-3-3-3-5-0-3-|-0-15s13s15s13-11---------------5-0-/3-|
|-0-------3-----------5-0-3-|-0----------------0-(0)--(0)----5-0-/3-|
|-0-------------------5-0-3-|------------------0-(0)--(0)----5-0-/3-|
|---------------------------|---------------------------------------|
|---------------------------|---------------------------------------|

    Н.      +Q   Е Е Е Е     Q.   +Е   Q   Q.   Е Е Е
||--0-------(0)-----------||-0----(0)-12--0-----------|
||о-0-------(0)--0-5-0-3-о||-0----(0)-12--0-----5-0-3-|
||--0-------(0)--0-5-0-3--||-0----(0)-12--0-----5-0-3-|
||--0-------(0)--0-5-0-3--||-0----(0)------0----5-0-3-|
||о----------------------о||--------------------------|
||------------------------||--------------------------|

Guitar Sоlо 2:
                                           ~
  Н.      +Q   Е Е Е Е    Е a Е Е a Q  a Е Q  Е Е Е Е
|-0-------(0)----------||-0---4s5-4s5--4s5-5----------|
|-0-------(0)--0-5-0-3-||-0-3-------------------------|
|-0-------(0)--0-5-0-3-||-0-------------------0-5-0S3-|
|-0-------(0)--0-5-0-3-||-0---------------------------|
|----------------------||-----------------------------|
|----------------------||-----------------------------|

  Е a Q  a Q  Е Q  Е Е Е Е
|------------------0--------|
|------------------0-5-0-3--|
|-0----------------0-5-0-3--|
|---4s5--4s5--5S3----5-0-3--|
|---------------------------|
|---------------------------|

  Е Q  Q.   Q  Е Е Е Е     Е Е Е Е Е Е Q.   Е Е Е
|----------------------||--------------------------||
|-0-2s=3---------------||о-------------0----------о||
|-0-2s=3----0--0-5-0-3-||--0-----3-0-3-0----5-0-3--||
|-0-2s=3----0--0-5-0-3-||--0-3-0-3-0-3-0----5-0-3--||
|----------------------||о---3-0------------------о||
|----------------------||--------------------------||

   Е Е Е Е Е     Q  Е Е Е Е
|-----------------------------|
|-0---------------------------|
|-0---------------0--0-5-0S3--|
|-0---------------0--0-5-0S3--|
|---------0-3b3.5-0-----------|
|---0-0S4---------------------|

                                              ~~~~~~~~
    Е Е Е Е Е Е Q  Е Е Е Е         Е  Н       Е   +Q   Е Е Е Е
||--------------------------||-||--0-------/(12)-(12)-----------||
||о------------------------о||-||о-0-11s=====12--(12)--0-5-0-3-о||
||--0-----------0--0-5-0-3--||-||--0-11s=====12--(12)--0-5-0-3--||
||--0-----------0--0-5-0-3--||-||--0-11s=====12--(12)--0-5-0-3--||
||о---------0-3-0----------о||-||о-----------------------------о||
||----0-0S3-----------------||-||-------------------------------||

       ~~~~~~~~~~~~~~
                |---4:3---|
   Е.  S  S  S  Е  Е  Е   Е  Q   Е Е Е Е
|-12--24-22-22-22-22-19-12-15------------|
|-12-----------------19-12-15--0-5-0-3---|
|--------------------------------0-5-0-3-|
|--------------------------------0-------|
|----------------------------------------|
|----------------------------------------|

          ~~~~~
    |--4:3---|      |--3--|
    Е  Е  Е  Е  Е   Е  Е  Е  S  Е. Е Е Е 
|-/21----21-21-21-19-17-15s14-15-----------|
|------------------19-17-15s14-15-0-5-0-3--|
|-----21---------------------------0-5-0-3-|
|------------------------------------------|
|------------------------------------------|
|------------------------------------------|

         ~~~~~~~~~~~~~~                        ~~~~~~~~
               |--4:3---|                   |--3--|  |-2:3-|
  Е   Е  S  S  Е  Е  Е  Е  Q   Е Е Е Е   Е  Е  Е  Е  Е  Е  Q     Е  Е Е Е Е Е
|-0-----21----21----21----19-----------|-0----21----21----21---15-0-----0-0---|
|-0--------------------20-19--0-5-0-3--|-0----------------------15-0-0-5-0-0--|
|-0--------21----21------------0-5-0-3-|-0-21----21----21-21---------0-5------|
|-0-/17--------------------------------|--------------------------------------|
|---/17--------------------------------|--------------------------------------|
|--------------------------------------|--------------------------------------|

  Е Е Е Е Е Е Е Е Е Е Е Е     Е Е Е Е Е Е Е Е Е Е Е Е
|-3-3-3-3-3-3-3-3-3-3-3-3-||--3-3-3-3-3-3-3-3-3-3-3-3--||
|-3-3-3-3-3-3-3-3-3-3-3-3-||о-3-3-3-3-3-3-3-3-3-3-3-3-о||
|-----------0-------------||---------------------------||
|-----------0-------------||---------------------------||
|-------------------------||о-------------------------о||
|-------------------------||---------------------------||

  Q.   +Е   Q   Q  Е Е Е Е   Н.      +Q   Е Е Е Е
|-0----(0)-15--0-----------|-0-------(0)----------|
|-0----(0)-15--0-----5-0-3-|-0-------(0)--0-5-0-3-|
|-0----(0)------0--0-5-0-3-|-0-------(0)--0-5-0-3-|
|-0----(0)------0--0-5-0-3-|-0-------(0)--0-5-0-3-|
|--------------------------|----------------------|
|--------------------------|----------------------|

 Verse 4:
  q  Е Q.   Н.       Wx5
|-0---------------||----------------|
|-0---------------||----------------|
|-0---------------||----------------|
|-0---------------||----------------|
|-----------------||----------------|
|-----------------||----------------|

Riff 1
Riff 2 x5

                         Outro:
  Н.      +Q   Е Е Е Е    Q.   +Е   Е   Е  Q.   Е Е Е
|-0-------(0)----------||--------------12-0------------|
|-0-------(0)--0-5-0-3-||-0----(0)--------0----5-0-3---|
|-0-------(0)--0-5-0-3-||-0----(0)-12-----0----5-0-3---|
|-0-------(0)--0-5-0-3-||-0----(0)-12----------5-0-3---|
|----------------------||------------------------------|
|----------------------||------------------------------|

  Е  Е Е Е Е Е Е Е Е Е Е Е   Е  Е  Е  Е  Е   Е   Q   Е Е Е Е
|------3-3-3-3-5-----------|---------12----------------------|
|-0-/3---3-3-3---0---5-0-3-|-0----------12------------5-0-3--|
|-0------0-0-0-----0-5-0-3-|-0-11s12-------(12)-12--0-5-0-3--|
|-0------------------5-0-3-|-0-11s12------------12--0-5-0-3--|
|--------------------------|---------------------------------|
|--------------------------|---------------------------------|

              ~~~~~~~~~~~~~
  Е  Н     Е  Q   Е  Q   Е
|-0-------------------------|
|-0----------12--12-12--12--|
|-0-11s===12-12--12-12--12--|
|-0-11s===12------------12--|
|---------------------------|
|---------------------------|

   ~~~~~~~~~~~~~~~~~~~~~~~~~~~~~~~~~~~~~~~~~~~~~~~~~~~~~~~~~~
   Q   Е  Q   Е  Q   Е  Q   Е    Q   Е  Q   Е  Q   Е  Q   Е
|-----------------------------|-----------------------------|
|-12--12-12--12-12--12-12-----|----------------------12-----|
|-12--12-12--12-12--12-----12-|-12--12-12--12-12--12-12--12-|
|-12--12-12--12-12--12-----12-|-12--12-12--12-12--12-----12-|
|-12--12-12--12-12--12-----12-|-12--12-12--12-12--12-----12-|
|-----------------------------|-----------------------------|

 ~~~~~~~~~~~~~~~~~~~~~~~~~~~~~~~~~
   Q   Е  Q   Е  Е  Е  Е  Е  Е  Е
|---------------------12-----------|
|------------------12-12-12--------|
|-12--12-12--12-12----------12-----|
|-12--12-12--12-12-------------12--|
|-12--12-12--12-12-----------------|
|----------------------------------|

   Q   Е  Q   Е  Q.  Q  S S   Н.      +Q   Е Е Е Е    Н.      +Q   Е Е Е Е
|---------------------------|-----------------------|----------------------|
|-12--12-12--12-12s==5--3---|-0-------(0)----5-0-3/-|-0-------(0)----5-0-3-|
|-12--12-12--12-12s==5--3p0-|-0-------(0)--0-5-0-3/-|-0-------(0)--0-5-0-3-|
|-12--12-12--12-12s==5------|-0-------(0)--0-5-0-3/-|-0-------(0)--0-5-0-3-|
|---------------------------|-----------------------|----------------------|
|---------------------------|-----------------------|----------------------|

                             Н.=Н
                                    TP
  Q  Е Q  Е Q  Е Q  Е   Q.    Е  Q  Q.   +Q.     q  Е Q.   Н.
|---------------------|------^1-^2--3----(3)---|-3---------------*|
|-0-------------------|------^1-^2--3----(3)---|-3---------------*|
|-0-------------------|-------------0----(0)---|-0---------------*|
|-0--0-3--3-2--2-1--1-|-0----------------------|-----------------*|
|-0-------------------|------------------------|-----------------*|
|-0-------------------|------------------------|-----------------*|
 
 

Видео