Three Days Grace - Animal I Have Become, аккорды

Прокрутка
Тональность
Шрифт
100
Настраиваем гитару на Drop C и поехали.

Intro:
|----------------------------------------------------------------|x1
|----------------------------------------------------------------|
|----------------------------------------------------------------|
|----------------------------------------------------------------|
|-0-0------7------0-0------7------0-0------7------0-0------7-----|
|-0-0--7-8---8-7--0-0--7-8---8-7--0-0--7-8---8-7--0-0--7-8---8-7-|

|------------------------------------------------------------------|x1
|10-10------------10-10------------10-10------------10-10----------|
|-7--7-------------7--7-------------7--7-------------7--7----------|
|-7--7-------------7--7-------------7--7-------------7--7----------|
|-0--0------7------0--0------7------0--0------7------0--0------7---|
|-0--0--7-8---8-7--0--0--7-8---8-7--0--0--7-8---8-7--0--0--7-8---8-|

Verse:
|-----------------------------------------------------------|x3
|-----------------------------------------------------------|
|-----------------------------------------------------------|
|-----------------------------------------------------------|
|-3-3--3-3-3--3-3-3--3-3-3--5--0-0------7------8-0------7---|
|-3-3--3-3-3--3-3-3--3-3-3--5--0-0--7-8---8-7--0-0--7-8---8-|

Pre-Chorus:
|---------------------------------------------|x1
|---------------------------------------------|
|---------------------------------------------|
|---------------------------------------------|
|-3-3--3-3-3--3-3-3--3-3-3--3-5-5--5-5-5--5-8-|
|-3-3--3-3-3--3-3-3--3-3-3--3-5-5--5-5-5--5-8-|

Chorus:
|---------------------------------------------------|x1
|---------------------------------------------------|
|---------------------------------------------------|
|-0-0--10-10--3-3--7-7-8---0-0--10-10--3-3--5-5-3-2-|
|-0-0--10-10--3-3--7-7-8---0-0--10-10--3-3--5-5-3-2-|
|-0-0--10-10--3-3--7-7-8---0-0--10-10--3-3--5-5-3-2-|

|---------------------------------------------------|
|---------------------------------------------------|
|---------------------------------------------------|
|-0-0--10-10--3-3--7-7-8---0-0--10-10--3-3--5--3--2-|
|-0-0--10-10--3-3--7-7-8---0-0--10-10--3-3--5--3--2-|
|-0-0--10-10--3-3--7-7-8---0-0--10-10--3-3--5--3--2-|

Verse:
|------------------------------|x1
|------------------------------|
|------------------------------|
|------------------------------|
|-0-0------7------0-0------7---|
|-0-0--7-8---8-7--0-0--7-8---8-|

|-----------------------------------------------------------|x3
|-----------------------------------------------------------|
|-----------------------------------------------------------|
|-----------------------------------------------------------|
|-3-3--3-3-3--3-3-3--3-3-3--5--0-0------7------8-0------7---|
|-3-3--3-3-3--3-3-3--3-3-3--5--0-0--7-8---8-7--0-0--7-8---8-|

Pre-Chorus:
|---------------------------------------------|x1
|---------------------------------------------|
|---------------------------------------------|
|---------------------------------------------|
|-3-3--3-3-3--3-3-3--3-3-3--3-5-5--5-5-5--5-8-|
|-3-3--3-3-3--3-3-3--3-3-3--3-5-5--5-5-5--5-8-|

Chorus:
|---------------------------------------------------|x2
|---------------------------------------------------|
|---------------------------------------------------|
|-0-0--10-10--3-3--7-7-8---0-0--10-10--3-3--5-5-3-2-|
|-0-0--10-10--3-3--7-7-8---0-0--10-10--3-3--5-5-3-2-|
|-0-0--10-10--3-3--7-7-8---0-0--10-10--3-3--5-5-3-2-|

|------------------------------------------------------|
|------------------------------------------------------|
|------------------------------------------------------|
|-0-0--10-10--3-3--7-7-8---0-0--10-10--3-3--5--3--2--0-|
|-0-0--10-10--3-3--7-7-8---0-0--10-10--3-3--5--3--2--0-|
|-0-0--10-10--3-3--7-7-8---0-0--10-10--3-3--5--3--2--0-|

Bridge:
|------------------------------|x1
|------------------------------|
|------------------------------|
|------------------------------|
|-0-0------7------0-0------7---|
|-0-0--7-8---8-7--0-0--7-8---8-|

|--------------------------------------------------------|x2
|--------------------------------------------------------|
|1010-101010-10-7-7-------------2-2--2-2-2--2-5-5--5-5-5-|
|-8-8--8-8-8--8-5-5-------------0-0--0-0-0--0-3-3--3-3-3-|
|-8-8--8-8-8--8-5-5------7------0-0--0-0-0--0-3-3--3-3-3-|
|-8-8--8-8-8--8-5-5--7-8---8-7--0-0--0-0-0--0-3-3--3-3-3-|

|-----------------------------|x1
|-----------------------------|
|1010-101010-10---------------|
|-8-8--8-8-8--8---------------|
|-8-8--8-8-8--8---------7-----|
|-8-8--8-8-8--8--5--7-8---8-7-|

Intro repeated:
|----------------------------------------------------------------|x1
|----------------------------------------------------------------|
|----------------------------------------------------------------|
|----------------------------------------------------------------|
|-0-0------7------0-0------7------0-0------7------0-0------7-----|
|-0-0--7-8---8-7--0-0--7-8---8-7--0-0--7-8---8-7--0-0--7-8---8-7-|

Chorus:
|---------------------------------------------------|x2
|---------------------------------------------------|
|---------------------------------------------------|
|-0-0--10-10--3-3--7-7-8---0-0--10-10--3-3--5-5-3-2-|
|-0-0--10-10--3-3--7-7-8---0-0--10-10--3-3--5-5-3-2-|
|-0-0--10-10--3-3--7-7-8---0-0--10-10--3-3--5-5-3-2-|

|------------------------------------------------------|
|------------------------------------------------------|
|------------------------------------------------------|
|-0-0--10-10--3-3--7-7-8---0-0--10-10--3-3--5--3--2--0-|
|-0-0--10-10--3-3--7-7-8---0-0--10-10--3-3--5--3--2--0-|
|-0-0--10-10--3-3--7-7-8---0-0--10-10--3-3--5--3--2--0-|

Intro/Pre-Outro:
|------------------------------------------------------------------|x2
|10-10------------10-10------------10-10------------10-10----------|
|-7--7-------------7--7-------------7--7-------------7--7----------|
|-7--7-------------7--7-------------7--7-------------7--7----------|
|-0--0------7------0--0------7------0--0------7------0--0------7---|
|-0--0--7-8---8-7--0--0--7-8---8-7--0--0--7-8---8-7--0--0--7-8---8-|

Outro:
|------------------------------------------------------|x1
|------------------------------------------------------|
|----------------------------------------------9-------|
|------------------------------------------7-8---8-7-0-|
|-------7------------7------------7------------------0-|
|-0-7-8---8-7--0-7-8---8-7--0-7-8---8-7--0-----------0-|
 
 

Видео