Three Days Grace - Home, аккорды

Прокрутка
Тональность
Шрифт
100
Tunning: Drop D flat [DbAbdbGbBbeb]

Riff 1: (guitar 1)
e--------------------------------------------
b--------------------------------------------
g--------------------------------------------
d----11--11-----11--11-----7--7-----4--4-----
a----11--11-----11--11-----7--7-----4--4-----
d----11--11-----11--11-----7--7-----4--4-----

e--------------------------------------------
b--------------------------------------------
g--------------------------------------------
d----11--11-----11--11-----0--0-----9--9-----
a----11--11-----11--11-----0--0-----9--9-----
d----11--11-----11--11-----0--0-----9--9-----

Riff 2: (guitar 1)played the same speed as riff 1 
e-------------------------------------------------------
b-------------------------------------------------------
g-------------------------------------------------------
d----11--11-X-X--X-11--11-X-X--X-0--0-X-X--X-9--9-X-X--X
a----11--11-X-X--X-11--11-X-X--X-0--0-X-X--X-9--9-X-X--X
d----11--11-X-X--X-11--11-X-X--X-0--0-X-X--X-9--9-X-X--X

e------------------------------------------------------
b------------------------------------------------------
g------------------------------------------------------
d----11--11-X-X--X-11--11-X-X--X-0--0-X-X--X-9--9-X-X--
a----11--11-X-X--X-11--11-X-X--X-0--0-X-X--X-9--9-X-X--
d----11--11-X-X--X-11--11-X-X--X-0--0-X-X--X-9--9-X-X--

Riff 3: (guitar 1) verse only
e------------------------------------
b------------------------------------
g------------------------------------
d-----------------------7---9---11---
a--0--p0----p0----p0----7---9---11---
d--0-2p0---3p0---5p0----7---9---11---

Riff 4: (guitar 1) chorus only
e---------------------------------
b---------------------------------
g---------13----------------------
d----11---11-----------2-----4----
a----11---11-----------2-----4----
d----11---11-----------2-----4----

Riff 5: (guitar 1)
e-------------------------
b-------------------------
g-------------------------
d---0-0-0-0-0-0-0-0-1-1-1-
a---0-0-0-0-0-0-0-0-1-1-1-
d---0-0-0-0-0-0-0-0-1-1-1-

Riff 6: (guitar 2) played along with riffs 1 and 2 in intro only
e-----16~---------16~---------17~---------17~---------19--17-
b------------------------------------------------------------
g------------------------------------------------------------
d------------------------------------------------------------
a------------------------------------------------------------
d------------------------------------------------------------

Riff 7: (guitar 2) during verse but not while riff 3 is playing
e-----2---2---2-
b---4---4---4---
g---------------
d---------------
a---------------
d---------------

End on:
e-----
b-----
g-----   
d--11-
a--11-
d--11-

Комментарий автора:

Order:
riff 1  x1    riff 6 x1
riff 2  x1    riff 6 x1
riff 7  x7 or 8 im not sure,because like i said its hard to hear
riff 3  x2
riff 7  x7 or 8 
riff 3  x2
riff 7  x7 or 8
riff 4  x4
riff 1  x1
riff 3  x2
riff 7  x7 or 8
riff 3  x2
riff 7  x 7 or 8
riff 3  x2
riff 7  x7 or 8
riff 4  x4
riff 1  x2
(long pause)
riff 5  x1
(another pause not as long)
riff 4  x4
riff 1  x2 + the first half one time
 
 

Видео