Three Days Grace - Home, аккорды

Прокрутка
Тональность
Шрифт
100
Tuning: Drop D [EBGDAD]

Intro: x2
E|-15~~~-15~~~-16~~~-17-15-|
B|-------------------------|
G|-------------------------| GTR.1
D|-------------------------|
A|-------------------------|
D|-------------------------|

E|-------------------------------|---------------------------|
B|-------------------------------|---------------------------|
G|-------------------------------|-----------------------5-5-| GTR.2
D|-10-10---10-10---10-10---14-14-|-10-10---10-10---2-2---3-3-| 
A|-10-10---10-10----8--8---12-12-|-10-10---10-10---2-2---3-3-|
D|-10-10---10-10----8--8---12-12-|-10-10---10-10---2-2-------|

Intro: x1
E|-15~~~-15~~~-16~~~-17-15-|
B|-------------------------|
G|-------------------------| GTR.1
D|-------------------------|
A|-------------------------|
D|-------------------------|

E|--------------------------------------|
B|--------------------------------------|
G|--------------------------------------| GTR.2
D|-10-10-xx-x-10-10-xx-x10-10-xx-x14-14-|
A|-10-10-xx-x-10-10-xx-x-8--8-xx-x12-12-|
D|-10-10-xx-x-10-10-xx-x-8--8-xx-x12-12-|

E|---------------------------------|
B|---------------------------------|
G|-----------------------------5-5-| GTR.2
D|-10-10-xx-x10-10-xx-x2-2-xx-x3-3-|
A|-10-10-xx-x10-10-xx-x2-2-xx-x3-3-|
D|-10-10-xx-x10-10-xx-x2-2-xx-x----|

Verse: Riff 1
E|---6---6---6---6---7---7---7---7-|
B|-5---5---5---5---5---5---5---5---|
G|---------------------------------|
D|---------------------------------|
A|---------------------------------|
D|---------------------------------|

Verse: Riff 2
E|------------------------------|
B|------------------------------|
G|------------------------------|
D|------------------------------|
A|------------------------------|
D|-0---3p0-0-5p0-0-7p0-0--8--10-|

Pre-Chorus:
E|-----------------------------------------------------------
B|-----------------------------------------------------------
G|-4~~~-12~~/9~~-4-----5~~-14~~~-4--12~~/9~~4~~~-5~~~-14~~-4- GTR.1
D|-4~~~-12~~/9~~-4-----5~~~14~~~-4--12~~/9~~4~~~-5~~~-14~~-4-
A|-2~~~-10~~/7~~-2-----3~~~12~~~-2--10~~/7~~2~~~-3~~~-12~~-2-
D|-2~~~-10~~/7~~-2-----3~~~12~~~-2--10~~/7~~2~~~-3~~~-12~~-2-

Pre-Chorus:
E|-0~~~-|
B|-9~~~-|
G|-0~~~-| GTR.2
D|-7~~~-|
A|------|
D|------|

Chorus:
E|-15~~~-15~~~-16~~~-17-15-|
B|-------------------------|
G|-------------------------| GTR.1
D|-------------------------|
A|-------------------------|
D|-------------------------|

E|--------------------------------------|
B|--------------------------------------|
G|--------------------------------------| GTR.2
D|-10-10-xx-x-10-10-xx-x10-10-xx-x14-14-|
A|-10-10-xx-x-10-10-xx-x-8--8-xx-x12-12-|
D|-10-10-xx-x-10-10-xx-x-8--8-xx-x12-12-|

E|---------------------------------|
B|---------------------------------|
G|-----------------------------5-5-| GTR.2
D|-10-10-xx-x10-10-xx-x2-2-xx-x3-3-|
A|-10-10-xx-x10-10-xx-x2-2-xx-x3-3-|
D|-10-10-xx-x10-10-xx-x2-2-xx-x----|
 
 

Видео