Three Days Grace - I Hate Everything About You, аккорды

Прокрутка
Тональность
Шрифт
100
Drop D Tuning

Verse:
e|------------------|------------------|------------------|-----------|
B|------------------|------------------|------------------|-----------|
G|-----4---6--------|-----4---6--------|-----4---6--------|-----4---6-|
D|-----4---6--------|-----4---6--------|-----4---6--------|-----4---6-|
A|-4----------------|-4----------------|-0----------------|-0---------|
D|---4--------------|---4--------------|---0--------------|---0-------|

Pre-Chorus: E5 D5 D5

Chorus: F#5 D5 A5 E5
        F#5 D5 E5 A5 G#5

Bridge: D5 E5 F#5 E5
                                                  (2nd time)
    D5                 E5                F#5                 E5       ( |/only)
 e|-4-4-4-5-5-5-7-7--|-4-4-4-5-5-5-7-7--|-4-4-4-5-5-5-7-7--|-4-4-4-5p4--------|
 B|------------------|------------------|------------------|----------5-(2)---|
 G|------------------|------------------|------------------|------------------|
 D|------------------|------------------|------------------|------------------|
 A|------------------|------------------|------------------|------------------|
 D|------------------|------------------|------------------|------------------|

Chords Used:
    D5  E5 F#5  G#5  A5   D5
 e|--------------------------
 B|--------------------------
 G|------------------------7-
 D|-0---2---4----6----7----7-
 A|-0---2---4----6----7----5-
 D|-0---2---4----6----7------
 
 

Видео