Three Days Grace - I Hate Everything About You, аккорды

Прокрутка
Тональность
Шрифт
100
Verse:
|-------|-------|--------|--------|--------|
|-------|-------|--------|--------|--------|
|----6~-|-----6-|---4-6~-|-----6~-|---4-6~-|   
|----6~-|-----6-|---4-6~-|-----6~-|---4-6~-|   
|-4-4---|----4--|--0-----|----4---|--0-----|
|-4-4---|-0h4---|-0------|-0h4----|-0------|
 (x1)     (x3)    (x4)      (x4)     (x4)

Pre Chorus:
|-----------------|
|-----------------|
|-----------------|
|-4~---0~---4~----|
|-2~---0~---4~----|
|------0~---4~----|

Chorus:
|---------------------------------------------------------|
|---------------------------------------------------------|
|---------------------------------------------------------|
|-4-4--0-0--2-2-2-0-0-0----4-4-4-4-x-0-0-0-0-x--2-2-2>7-6-|
|-4-4--0-0--2-2-2-0-0-0----4-4-4-4-x-0-0-0-0-x--2-2-2>7-6-|
|-4-4--0-0--2-2-2-0-0-0----4-4-4-4-x-0-0-0-0-x--2-2-2>7-6-|

Bridge:
|----------------------------------------------------------------------------|
|----------------------------------------------------------------------------|
|----------------------------------------------------------------------------|
|----------------------------------------------------------------------------|
|--------------------------------------------------------------------------2~|
|-4--5--7--4--5--7--4--5--7--4--5p4-0--4--5--7--4--5--7--4--5--7--4--5p4-0-2~|
 
 

Видео