Three Days Grace - I Hate Everything About You, аккорды

Прокрутка
Тональность
Шрифт
100
Tuning: Drop D

Intro (Clean):
e|--------------------------------------------------------------------|
B|--------------------------------------------------------------------|
G|---4-6b-----4-6b-----4-6b-----4-6b-----4/6b----4/6b----4/6b----4/6b-|
D|---4-6b-----4-6b-----4-6b-----4-6b-----4/6b----4/6b----4/6b----4/6b-|
A|-------------------------------------0-------0-------0-------0------|
D|-4------0h4------0h4------0h4-------0-------0-------0-------0-------|

Verse (Clean): x4 
e|--------------------------------------------------------------------|
B|--------------------------------------------------------------------|
G|---4-6b-----4-6b-----4-6b-----4-6b-----4/6b----4/6b----4/6b----4/6b-|
D|---4-6b-----4-6b-----4-6b-----4-6b-----4/6b----4/6b----4/6b----4/6b-|
A|-------------------------------------0-------0-------0-------0------|
D|-4------0h4------0h4------0h4-------0-------0-------0-------0-------|

Pre-Chorus (Wah effect):
e|----------------------|
B|----------------------|
G|----------4~---2~--7~-|
D|----------4~---2~--7~-|
A|----------2~---0~--5~-|
D|----------------------|

Chorus (Distortion): x2 
e|------------------------------------------------------------|
B|------------------------------------------------------------|
G|------------------------------------------------------------|
D|-44--00--77-77-7--22-22-2----44-44-4--00-00-0--22-22-2--7-6-|
A|-44--00--77-77-7--22-22-2----44-44-4--00-00-0--22-22-2--7-6-|
D|-44--00--77-77-7--22-22-2----44-44-4--00-00-0--22-22-2--7-6-|

Verse (Clean): x3 
e|--------------------------------------------------------------------|
B|--------------------------------------------------------------------|
G|---4-6b-----4-6b-----4-6b-----4-6b-----4/6b----4/6b----4/6b----4/6b-|
D|---4-6b-----4-6b-----4-6b-----4-6b-----4/6b----4/6b----4/6b----4/6b-|
A|-------------------------------------0-------0-------0-------0------|
D|-4------0h4------0h4------0h4-------0-------0-------0-------0-------|

Pre-Chorus (Wah effect):
e|----------------------|
B|----------------------|
G|----------4~---2~--7~-|
D|----------4~---2~--7~-|
A|----------2~---0~--5~-|
D|----------------------|

Chorus (Distortion): x2 
e|------------------------------------------------------------|
B|------------------------------------------------------------|
G|------------------------------------------------------------|
D|-44--00--77-77-7--22-22-2----44-44-4--00-00-0--22-22-2--7-6-|
A|-44--00--77-77-7--22-22-2----44-44-4--00-00-0--22-22-2--7-6-|
D|-44--00--77-77-7--22-22-2----44-44-4--00-00-0--22-22-2--7-6-|

Bridge (Wah effect):
e|-4~-5-7--4~-5-7--4~-5-7--4~--5p4----4~-5-7--4~-5-7--4~-5-7--4~-5p4------|
B|---------------------------------5~--------------------------------5-2~-|
G|------------------------------------------------------------------------|
D|------------------------------------------------------------------------|
A|------------------------------------------------------------------------|
D|------------------------------------------------------------------------|

1st Part of Verse (Clean): 
e|----------------------------------------------|
B|----------------------------------------------|
G|------4-6b-----4-6b-----4-6b-----4-6b--xx--xx-|
D|------4-6b-----4-6b-----4-6b-----4-6b--xx--xx-|
A|---------------------------------------xx--xx-|
D|--0h4------0h4------0h4------0h4-------xx--xx-|

Chorus (Distortion): x4 
e|------------------------------------------------------------|
B|------------------------------------------------------------|
G|------------------------------------------------------------|
D|-44--00--77-77-7--22-22-2----44-44-4--00-00-0--22-22-2--7-6-|
D|-44--00--77-77-7--22-22-2----44-44-4--00-00-0--22-22-2--7-6-|
D|-44--00--77-77-7--22-22-2----44-44-4--00-00-0--22-22-2--7-6-|

End On:
e|------------|
B|------------|
G|------------|
D|-----4~-----|
A|-----4~-----|
D|-----4~-----|

Комментарий автора:

| /  slide up
| h  hammer-on
| p  pull-off
| ~  Ring Out
| x  Mute note
 
 

Видео