Three Days Grace - Scared, аккорды

Прокрутка
Тональность
Шрифт
100
this is an excellent song (tuning cgcfad)


verse/intro
D|--------------------------------------------------------------------------|
A|-----555555-4---55555--7-4------------------------------------------------|
C|--------------------------------------------------------------------------|
G|--------------------------------------------------------------------------|
C|--------------------------------------------------------------------------|


chorus
D|--------------------------------------------------------------------------|
A|--------------------------------------------------------------------------|
F|------------------------5555----------------------------------------------|
C|--------77-2223---------5555----------------------------------------------|
G|--------77-2223---------3333----------------------------------------------|
C|--------77-2223-----------------------------------------------------------|

pre chorus (the bridge is these powerchords palm mutted)
D|--------------------------------------------------------------------------|
A|--------------------------------------------------------------------------|
F|--------------------------------------------------------------------------|
C|-33333---55555------------------------------------------------------------|
G|-33333---55555------------------------------------------------------------|
C|-33333---55555------------------------------------------------------------|


thats it. quite an easy song. for insults or corrections or whatever my email is
abnormally_loud@hotmail.com
 
 

Видео