Tokio Hotel - Durch den Monsun(На русском), аккорды

Прокрутка
Тональность
Шрифт
100
Куплет:
e|-----------------------|-----------------------|
B|-----------------------|-----------------------|
G|-----------------------|-----------------------| 
D|-6--6--6--7--7--7--6--6|-2--2--2--3--3--3--2--2|
A|-7--7--7--7--7--7--7--7|-3--3--3--3--3--3--3--3|
E|-7--7--7--7--7--7--7--7|-3--3--3--3--3--3--3--3|

Окно закрылось навсегда
Теперь здесь только ты и я
Передо мной погас свечи огонь

Я бесконечность уже жду,
Когда же я тебя найду
И снова тучи следуют за мной

         C5              D5
На краю земли только я и ты
     E5                B5
проливные дожди нам мешают идти
             C5            D5
Мне трудно бежать я падаю вновь
             B5              E5 
Но мой путь бережёт твоя любовь
               C5             D5
сквозь ветер мы сбежим на край земли

Только я и ты

Куплет:
e|-----------------------|-----------------------|
B|-----------------------|-----------------------|
G|-----------------------|-----------------------| 
D|-6--6--6--7--7--7--6--6|-2--2--2--3--3--3--2--2|
A|-7--7--7--7--7--7--7--7|-3--3--3--3--3--3--3--3|
E|-7--7--7--7--7--7--7--7|-3--3--3--3--3--3--3--3|

Мерцает месяц надо мной
А только что он был с тобой
И он сдержал все обещания

Я знаю, что к тебе приду
Я всё равно тебя найду
Я верю, будем вместе ты и я

         C5              D5
На краю земли только я и ты
     E5                B5
проливные дожди нам мешают идти
             C5            D5
Мне трудно бежать я падаю вновь
             B5              E5 
Но мой путь бережёт твоя любовь
             C5            D5
Мы вместе убежим на край земли
     E5                B5
Сквозь ветер и Мусоные дожди

e|-----------------------|-----------------------|
B|-----------------------|-----------------------|
G|-----------------------|-----------------------| 
D|-6--6--6--7--7--7--6--6|-2--2--2--3--3--3--2--2|
A|-7--7--7--7--7--7--7--7|-3--3--3--3--3--3--3--3|
E|-7--7--7--7--7--7--7--7|-3--3--3--3--3--3--3--3

На краю земли ХЭЙ    ХЭЭЙ

Бридж:
поверь сквозь силы здесь каминная дверь
я разнесу преграды Ты только мне поверь

e|-------------|
B|-------------|
G|-9--11--9--9-| 
D|-------------|
A|-7--9---7--7-|
E|-----------8-|

и будет рассвет
твой голос в ответ

достанет рассвет
рассвет

         C5              D5
На краю земли только я и ты
     E5                B5
проливные дожди нам мешают идти
             C5            D5
Мне трудно бежать я падаю вновь
             B5              E5 
Но мой путь бережёт твоя любовь
             C5            D5
Мы вместе убежим на край земли
     E5                B5
Сквозь ветер и Мусоные дожди

e|-----------------------|-----------------------|
B|-----------------------|-----------------------|
G|-----------------------|-----------------------| 
D|-6--6--6--7--7--7--6--6|-2--2--2--3--3--3--2--2|
A|-7--7--7--7--7--7--7--7|-3--3--3--3--3--3--3--3|
E|-7--7--7--7--7--7--7--7|-3--3--3--3--3--3--3--3|
На краю земли Только я и ты.......Только я и ты.

Комментарий автора:

E5 -    x799xx 
     e|--------
     B|--------
     G|---9----
     D|---9----
     A|---7----
     E|--------
 
 
Свернуть Распечатать

Видео