Tom Waits - Blue Valentines, аккорды

Прокрутка
Тональность
Шрифт
100
Intro:
                        /------------  twice  ----------------
||--12----|-------------|---------------12--|-----------------|
||--10----|--------7----|---------------10--|--------7-----7--|
||--10----|--------7----|---------------10--|--------7-----7--|
||--0-----|-----6-------|-------------------|-----6-----6-----|
||--------|--0----------|-------------------|--0--------------|
||--------|-------------|--~~~~10---10------|-----------------|
                     (long slide)

1st Verse:
She sends me...

/-----------  three times -------------
|-------5---6--|-----------------------|
|-------6---6--|---------------7---7---|
|-----5---5----|---------------7---7---|
|--------------|------------6----6-----|
|--5-----------|-----------------------|
|--------------|---------0-------------|                 
Blue valentines a way from phila delphia to mark the anniversary

/---------------------------  three times  ---------------------------
|--------------|------------------|--------5-----5--|------------------|
|-------5---5--|---------5----5---|--------6-----6--|-----------7---7--|
|-------5---5--|---------6----6---|--------5--5-----|-----------7---7--|
|-----5---5----|------5----5------|-----------------|--------6----6----|
|--0-----------|---0--------------|-~~5--5----------|------------------|
|--------------|------------------|-----------------|------0-----------|                    
Of someone that I used to be and it feels 
Like there's a warrant out of my arrest, 
Got me checkin' in my rear view-mirror                       
And i'm always on the run

               |--------------|---------------------|
               |-------5---5--|------------5----5---|
               |-------5---5--|------------6----6---|
               |-----5---5----|---------5----5------|
               |--0-----------|------0--------------|
               |--------------|---------------------|
               That's why I changed my name and I

|----------------|-------|-----------------------|-------|
|-------7-----7--|-------|--------------7-----7--|-------|
|-------8-----8--|--bis--|--------------7-----7--|--bis--|  
|----7-----7-----|-------|-----------6-----6-----|-------|
|----------------|-------|-----------------------|-------|
|--7-------------|-------|---------0-------------|-------|           
Didn't think you'd ever find me here                     -> go to beginning
 
 

Видео