Тонкая Красная Нить - Без Тебя (Акустика), аккорды

Прокрутка
Тональность
Шрифт
100
Вступление: x2
2)-10-9--9-9-7---7-10-10-10-10-9--10-10-9--9-12-12-12-12-10--9-9-7---7-10-10-10-10-9--10-10-9---9-7-7-7-7-5--
4)--7-6--6-6-4---4--7--7--7--7-6---7--7-6--6--9--9--9--9--7--6-6-4---4--7--7--7--7-6---7--7-6---6-4-4-4-4-2--

Куплет:
4)-6-----4-----7---7-----6-----7-----7-----6-----7-----9-----7----9----6-----4-----7---7-----6-----7-----7-----
5)---4-4---4-4---4---4-4---4-4---4-----5-5---5-5---5-----7-7---7-7--7----4-4---4-4---4---4-4---4-4---4-----5-5-

4)-6-----7----4-----2-----2---|-6-x-x--4-x-x--7-x--7-x-x--6-x-x--7-x--7-x-x--6-x-x--7-x---9-x-x--7-x-x--9-x---
5)---5-5---5----2-2---2-2---2-|-------------------------------------------------------------------------------

4)-6-x-x--4-x-x--7-x--7-x--x--6-x-x---7-x--7-x-x--6-x-x--7-x--4-x-x--2-x-x--2-x--|-6-6-6-7-7-7-9-9--6-6-6-7-7-
5)-------------------------------------------------------------------------------|----------------------------
          E5   E5(VII)   F5(VIII)  
4)-7-9-9--9----9-9-9-9-10-10-10-10-
5)--------7----7-7-7-7--8--8--8--8-

Куплет 2:
4)-4-4--4-7-6---4--4--7-6-7-6---------7-6----------7-6-7-6-
5)-----------------------------5-5--5------8--8--8---------

Куплет:
От случая к случаю
Я себя мучаю
Памятью, письмами,
Грустными мыслями.
И до краев наполняя бокал,
Я выливаю осадок на стол.
Кто-то поранил, а кто-то пропал,
Кто-то остался, но главный ушел.
                           E5  E5(VII) / F5(VIII)
Кто-то остался, но главный ушел.

Припев: 
F#m                A
Жизнь без тебя не покажется раем.
   E              
Я знаю, мы знаем.
     D E5 / F5  
Мы знаем...
F#m                A
Ливнем прольемся, снегом растаем 
   E           D     E5 / F5
Но это то, что мы выбираем.

Проигрыш=Вступление

Куплет:
Ты выбираешь.
Дни расставляешь.
Ты меня будто бы
Книгу листаешь.
И ненавидя вчерашний свой сон,
Ты засыпаешь спокойно опять.
Завтра ты вновь меня выставишь вон,
Но я сегодня успею обнять.
Но я сегодня успею обнять.

Припев: 
F#m                A
Жизнь без тебя не покажется раем.
   E              
Я знаю, мы знаем.
     D E5 / F5  
Мы знаем...
F#m                A
Ливнем прольемся, снегом растаем 
   E           D     E5 / F5
Но это то, что мы выбираем.

Куплет 2:
F#5
Если б я знал раньше,
F#5
Я бы тебе сказал,
D5
Только вот я не знал.
    F5
Прости (Прости).
F#5
Если б имели уши
F#5
Стены кирпичных зданий,
D5
Если бы сон свинцовый
    F5
Не отравлял виски.
F#5
Я не умел плакать.
F#5
Плакать её слезами,
D5
Думать о том, что с нами
    F5
Мир пошутил, наверно.
F#5
Просто оставив перья
F#5
Вместо прекрасных крыльев
D5
Просто уже не верю
    F5
Послушно и вдохновенно.
F#5
Я все прощу кому-то, 
F#5
Тому, кто сумеет вырвать
D5
Ржавые гвозди из сердца 
    F5
И залечить раны
F#5
Но если уже не поздно,
F#5
Пусть лучше будет рано
D5
Чтобы твои вопросы
    F5
Душу мою не рвали.

Припев: 
F#m                A
Жизнь без тебя не покажется раем.
   E              
Я знаю, мы знаем.
     D E5 / F5  
Мы знаем...
F#m                A
Ливнем прольемся, снегом растаем 
   E           D     E5 / F5
Но это то, что мы выбираем.

Кода:
2)-9-9-7---7-10-10-10-10-9-
4)-6-6-4---4--7--7--7--7-6-

Комментарий автора:

Бой к перой части припева: V v ^ ^ v ^. Ко второй: v v V v^ v v V v^.
 
 
Свернуть Распечатать

Видео