Tool - 46 And 2, аккорды

Прокрутка
Тональность
Шрифт
100
Hey I am pretty sure this is correct 
Tabbed by Keith Cokeley 
It doesnt have to be in drop D 

Intro/ Listen to song for how many times to play it. 

G|---7---5h7---8h7---5h7---3h5--
D|-0---0-----0-----0-----0------
A|------------------------------
E|------------------------------

Then after u play the first part a few times it goes like this 

G|---7---5h7---8h7---12h11--5h7---3h5--
D|-0---0-----0-----0------0-----0------
A|-------------------------------------
E|-------------------------------------
 
 

Видео