Tool - Disposition, аккорды

Прокрутка
Тональность
Шрифт
100
Tool - Disposition
Tabbed by: zteam_cody@hotmail.com

() harmonics
 slide
^ bend

Intro                                                                         0:43
e-----------------------------------------------------------------------------------
b----------------------------------------------------------(7)----------------------
g-------------------------(7)---------(7)------------(7)----------------------------
d-------------(9)------(9)---------(9)---(7)------(9)---(7)-------------------------
a----(7)---(7)------(7)---------(7)------------(7)----------------------------------
d-----------------------------------------------------------------------------------

(First figure)  play 3x                      play first figure 3x             1:23
e-------------------------.----------------.                     .------------------
b-------------------------.----------------.                     .------------------
g-------(7)--------11-11--.--7-9-----11-11-.                     .---7-9-7----------
d----(9)---(7)-(9)--9--9--.--------9-------.                     .------------------
a-(7)---------------------.----------------.                     .------------------
d-------------------------.----------------.                     .------------------

(Second Figure) play 6x   play twice  1:41  play second figure 3x             1:53
e----------------------.------------------.                      .------------------
b----------------------.------------------.                      .------------------
g---9--911--149-----.---9119119----.                      .----9-9-119------
d----------------------.------------------.                      .------------------
a----------------------.------------------.                      .------------------
d----------------------.------------------.                      .------------------

This is all I have tabbed so far... Any corrections please let me know 
 
 

Видео