Tool - Disposition, аккорды

Прокрутка
Тональность
Шрифт
100
Band: Tool
Song: Disposition
Tabber: N6y6c6k M.
Tuning: Drop D - GDAD
( ) - harmonic
~~~ - ring
/  - slide up/down

Intro
______

G|---------------------(5)-----7-7-------------------------------------------------|
D|---(5)(5)---(7)(7)-----------------------------(5)(5)-(7)(7)----------16-16------|
A|-7--------7--------7-----5-5-----5~~~~~~~~~~-7-------7------7/14-14-14-----14===|
D|---------------------------------0~~~~~~~~~~-------------------------------------|

Once the guitar moves in to support the song, go to this
G|--------------------|
D|-12~~~14~~14-9-9-9--|
A|-10~~~12~~12-7-7-7--|
D|--------------------|

Slow Riffs 
G|---9--11--14|                     |---9--11---11-------|---9--116-116---------|
D|-9-----------|         OR          |-9------11---11-----|-9----------------------|
A|-------------|                     |--------------------|------------------------|
E|-------------|                     |--------------------|------------------------|
  The way he does this song is hard to tab because of the effect the song has in
the music, so it's either one of this, both sound fine to me!
 
 

Видео