Tool - Jerk Off Live, аккорды

Прокрутка
Тональность
Шрифт
100
Artist: Tool
Song Title: Jerk off (live)
Cd:Opiate
Submitted by: mike downes

droped D


|--------------------------------------|
|--------------------------------------|
|----9------10--9-------9----10--9-----|
|7-------7----------7-----7---------8--|
|--------------------------------------|
|--------------------------------------|

and then
|--------------------------|
|--------------------------|
|--------------------------|
|--------------------------|
|-0--7--0--8-7--0--8-7-----|
|-----------------------7--|

this is a great song and a great song to learn so have fun!!
 
 

Видео