Tool - Mantra, аккорды

Прокрутка
Тональность
Шрифт
100
Opening Riff:
e----------------------------------------------------------
B----------------------------------------------------------
G----------------------------------------------------------
D---------14--14--9--9--10--10--12--12--10--10--9--9--3--3-
A----------------------------------------------------------
E-12--12---------------------------------------------------

Onto the heavy: this can be played with double strokes or not*
----------------------------
----------------------------
----------------------------
-2--14--9--10--12--10--9--5-
-2--14--9--10--12--10--9--5-
-0--12--7--8---10--8---7--3-

Next Stanza:
----------------------------------------------------------{----
----------------------------------------------------------{----
--3--------------------3----------------------------------{----
--2-------X--X--X--X---2----------------------------------{-14- x4
--2-------X--X--X--X---2----------------------------------{-14-
--0-------X--X--X--X---0----------------------------------{-12-

Enter Lyrics: 
----------------------------------------------------
----------------------------------------------------
----------------------------------------------------
----------------------------------------------------
----------------------------------------------------
--0--0--12--12--7--7--8--8--10-10--8--8--7--7--3--3-

Bridge:
--------------------------------------------------------
--------------------------------------------------------
--------------------------------------------------------
----98--87--76---65-----X--X--X--X--2----X--X--X--X--2--
----98--87--76---65-----X--X--X--X--2----X--X--X--X--2--
----76--65--54---43-----X--X--X--X--0----X--X--X--X--0--

Last section:
----------------------------------------------------------------------
----------------------------------------------------------------------
--9--9--9--10--10--10--13--13--13--14--14--14--13--13--13--10--10--10-
--9--9--9--10--10--10--13--13--13--14--14--14--13--13--13--10--10--10-
--7--7--7--8---8---8---11--11--11--12--12--12--11--11--11--8---8---8--
----------------------------------------------------------------------

-------------{---------------------------------------------
-------------{---------------------------------------------
--9--9--9----{--10--10--10----------9---9----------------9-
--9--9--9----{--10--10--10----------9---9----------------9-
--7--7--7----{--8---8---8-----------7---7----------------7-
-------------{----------------------0---0------------------
[repeat]                          [loud!]      [Acoustic strum]
 
 

Видео