Tool - Schism, аккорды

Прокрутка
Тональность
Шрифт
100
G-3---2---5---7--------------  intro
D-3---3---5---8---0----------  is played 2x
A----------------------------
D----------------------------


G---------10-9-----------10-9-12----- play this 8x
D-0h10h12---0-0--0h10h12---0-0-0----- 
A------------------------------------
D------------------------------------


G---------10-9-----------9-7-10------ play this 4x
D-0h10h12-----0--0h10h12--0-0-0------
A------------------------------------
D------------------------------------


G------------------------------------ play this 4x
D--------10-9----------10-9-12-------
A-0h10h12--0-0--0h10h12--0-0-0-------
D------------------------------------

That's all I know for now. But I'll fill in the rest of it some time this week. 
From D.A.R in San Antonio, Tx                           
 
 

Видео