Tool - Schism, аккорды

Прокрутка
Тональность
Шрифт
100
Here's some parts

Intro:
G:-3-2-5-7--3-2-5-7---
D:-0-3-5-8--0-3-5-8--0
A:--------------------
E:--------------------

This verse is what everybody is messin up, it goes like this

G:--------------------------------
D:-------3-0-2-0-------3-0-2-0-5-0
A:-0h2h5---------0h2h5------------
E:--------------------------------

This way sounds right. But if you're feelin like ur hand is gonna fall off 
from hammering on from 2 to 5, then just quickly hit the open D. 

That's all I have for now, I'm workin on the rest
 
 

Видео