Tool - The Grudge, аккорды

Прокрутка
Тональность
Шрифт
100
the other tabs are pretty shitty so i decided to tab it
(justin uses a pick)
p=pull off
h=hammer-on

Intro

G--------14--------12--------17--------14
D-0h13p0----0h13p0----0h13p0----0h13p0---
A----------------------------------------
E----------------------------------------

Then 

G-------7---------------7--------
D-0h1p0---0h1p0-3-0h1p0---0h1p0-3
A--------------------------------
E--------------------------------

G-----------------
D-----------------
A-----------------
E-0-0-0-0-0-0-0-0-

Verse
G--------14--------12--------17--------14
D-0h13p0----0h13p0----0h13p0----0h13p0---
A----------------------------------------
E----------------------------------------

Mini Solo
G-------14-------17------------
D----------15-14----------15-14
A-17-15-------------17-15------
E------------------------------

Thats most of the essential stuff the end is kind of like eulogy and lots of
the riffs come up more than once.
 
 

Видео