Tragically Hip - Grace Too, аккорды

Прокрутка
Тональность
Шрифт
100
Artist: The Tragically Hip
Song: Grace, too
Album: Day for Night

The main part of the song is fairly easy, but i thought the
bass solo at the beginning was worth tabbing out, so here
it is:

G-0h1-2--4--4--4-4-4-4h2-1--1--1-1-1-----22-----2-1---------------1-
D-------------------------------------0h2----0h2-----22--0h2--------
A-------------------------------------------------------------33----
E-------------------------------------------------------------------

G-0h1-2--4--4--4-4-4-4h2-1--1--1-1-1-----22-----2-1-----------------
D-------------------------------------0h2----0h2-----22--2--4--2222-
A-------------------------------------------------------------------
E-------------------------------------------------------------------

Tabbed by: Chris Chambers (cgc@gpu.srv.ualberta.ca)

Email me with corrections etc.. later