Transplants - California Babylon, аккорды

Прокрутка
Тональность
Шрифт
100
-------------------------------------------------------------------------------
			     California Babylon - Transplants
-------------------------------------------------------------------------------

Tabbed By : ez-m
e-mail: pomm@ztv-online.cjb.net


G---------------
D---------------
A3--3--333------
E----------1-1--

G---------------
D--------2-2-3--
A3--3-----------
E---------------

its just that all the way pritty much, but somtimes it stops when its on the dont
say that you dont understand bit