Transplants - Diamonds And Guns, аккорды

Прокрутка
Тональность
Шрифт
100
Ok. i dont know if my tab is 100% right, but if u ask me, it sounds fine.
But if there is anything wrong with it, e-mail me at evangervais@hotmail.com
and I will change it.


Intro(also played between the chorus and verse)
e----------------------------------
B----------------------------------
G----------------------------------     (6x)
D-10-10-5-8-9----------------------
A-10-10-5-8-9----------------------
E-8--8--3-6-7----------------------

Verse
e----------------------------------
B----------------------------------
G----------------------------------     (4x)
D-10-10----------------------------
A-10-10----------------------------
E-8--8-----------------------------

Chorus
e----------------------------------
B----------------------------------
G----------------------------------     (4x)
D-10-5-----------------------------
A-10-5-----------------------------
E-8--3-----------------------------

This is da order it go's in:

Intro
Verse
Chorus
Intro
Verse
Chorus
Intro
Verse
Chorus
Intro
chorus(it just plays the beat)
Intro

Overall, this is a very easy song to play.  Have fun!!!