Transplants - Diamonds And Guns, аккорды

Прокрутка
Тональность
Шрифт
100
Begining:

G------------------------------ (Play as many times needed)
D-66-66------------------------
A-------66-99------------------
E------------------------------

Play This After Each Verse As Second Part:

G------------------------------
D-66-66------------------------
A------------------------------
E------------------------------

This is played in every verse:
You Find Out What order The verses are.Every verse this is played.

G------------------------------ (Play as many times needed)
D-66-66------------------------
A-------66-99------------------
E------------------------------

It's Easy And Fun To Play.
Don't Play It Without Someone 
playing the guitar part.Otherwise
it doesn't sound as good.It's still awesome.