Transplants - Dj Dj, аккорды

Прокрутка
Тональность
Шрифт
100
                 intro/riff
G-----------------------------------
D-----------------------------------
A-----------------------------------x 4 
E-5/--0-3-4-6-----------------------
              
                     verse 
G-----------------------------------
D-----------------------------------
A-----5-5-7-7-5-5-------------------x4
E-5-5-------------------------------  
                    chorus
G-----------------------------------
D-----------------------------------
A-----5-5-7-7-5-5-------------------x4
E-5-5-------------------------------