Troggs - Wild Thing, аккорды

Прокрутка
Тональность
Шрифт
100
this was tabbed by moley_sawer@hotmail.com
 basically version 2 is in the wrong key but this one is right and longer

G:----------------------------------
D:-----0-0-2-2-0-0------------------ 3 times
A:-0-0------------------------------
E:----------------------------------

4th time
G:----------------------------------
D:-----0-0-2-2----------------------
A:-0-0-----------0------------------
E:-------------3---3----------------

G:----------------------------------
D:---------------------------------- twice then back
A:-0---------------------------0---- to beginning
E:---------------------------3---3--
   1 + 2 + 3 + 4 + 1 + 2 + 3 + 4 +