Troggs - Wild Thing, аккорды

Прокрутка
Тональность
Шрифт
100
this is only one bit of the song it's obvious what

G:-------------------------- play 3 times
D:-----------0-0------------
A:-------3-3-----3-3--------
E:---3-3--------------------

G:---------------------------- 4th time play this
D:-----------0-0--------------
A:-------3-3------------------
E:---3-3---------1-3-1--------