Typecast - The Boston Drama, аккорды

Прокрутка
Тональность
Шрифт
100
Drop D tuning
 
e--------------------------------------------| 
b--------------------------------------------| 
g--2-4-2-0---------------2-4-2-0-------------| 
d-----------5-5-5-5-5-5-----------4-4-4-4-4-4| x2 
a-----------5-5-5-5-5-5-----------4-4-4-4-4-4| 
D-----------5-5-5-5-5-5-----------4-4-4-4-4-4| 
 
e--------------------------------------------| 
b--------------------------------------------| 
g--2-4-2-0---------------2-4-2-0-------------| 
d-----------5-7-7-7-7-7-----------4-7-7-7-7-7| x2 
a-----------5-5-5-5-5-5-----------4-4-4-4-4-4| 
D-----------5-5-5-5-5-5-----------4-4-4-4-4-4| 
 
e--------| 
b--------| 
g--2-4-2-| 
d--------| 
a--------| 
E--------| 
 
Verse: 
   PM-----     PM---------      PM------------- 
e-----------5---------------8------------------| 
b----------------------------------------------| 
g----------------------------7-----------------| 
d--5-5-5-5-----5-5-5-5-5-5------5-5-5-5-5-5-5-5| 
a--5-5-5-5-----5-5-5-5-5-5------5-5-5-5-5-5-5-5| 
D--5-5-5-5-----5-5-5-5-5-5------5-5-5-5-5-5-5-5| 
 
e---------------------------------------| 
b---------------------------------------| 
g--7-7-7----7/9---6--6-6/7---6---6-6----| 
d--x-x-x----x-----x--x-x-----x---x-x--7-| 
a--5-5-5----5/7---4--4-4/5---4---4-4--x-| 
D--0-0-0----0-----0--0-0-----0--------7-| 
 
   PM-----     PM---------      PM------------- 
e-----------5---------------8------------------| 
b----------------------------------------------| 
g----------------------------7-----------------| 
d--5-5-5-5-----5-5-5-5-5-5------5-5-5-5-5-5-5-5| 
a--5-5-5-5-----5-5-5-5-5-5------5-5-5-5-5-5-5-5| 
D--5-5-5-5-----5-5-5-5-5-5------5-5-5-5-5-5-5-5| 
 
e---------------------------------------------------------| 
b---------------------------------------------------------| 
g--7-7-7----7/9--9-9----9/11---11-11---11/12---11--11-11--| 
d--x-x-x----x----x-x----x------x--x----x-------x---x--x--7| 
a--5-5-5----5/7--7-7----7/9----9--9----9 /10---9---9--9---| 
D--0-0-0----0----0-0----0------0--0----0-------0---------7| 
 
   PM-----     PM-------------         PM----------- 
e-----------9-------------------10------------------| 
b---------------------------------------------------| 
g----------------------------------11---------------| 
d--9-9-9-9-----9-9-9-9-9-9-9-9---------9-9-9-9-9-9-9| 
a--9-9-9-9-----9-9-9-9-9-9-9-9---------9-9-9-9-9-9-9| 
D--9-9-9-9-----9-9-9-9-9-9-9-9---------9-9-9-9-9-9-9| 
 
e---------------------------------------| 
b---------------------------------------| 
g--7-7-7----7/9---6--6-6/7---6---6-6----| 
d--x-x-x----x-----x--x-x-----x---x-x--7-| 
a--5-5-5----5/7---4--4-4/5---4---4-4--x-| 
D--0-0-0----0-----0--0-0-----0--------7-| 
 
   PM-----     PM-------------         PM----------- 
e-----------9-------------------10------------------| 
b---------------------------------------------------| 
g----------------------------------11---------------| 
d--9-9-9-9-----9-9-9-9-9-9-9-9---------9-9-9-9-9-9-9| 
a--9-9-9-9-----9-9-9-9-9-9-9-9---------9-9-9-9-9-9-9| 
D--9-9-9-9-----9-9-9-9-9-9-9-9---------9-9-9-9-9-9-9| 
 
                 PM--------- 
e---------------------------| 
b---------------------------| 
g---------------------------| 
d--5-5-7-7-7-7--------------| 
a--5-5-5-5-5-5---5-5-5-5-5-5| 
D--5-5-5-5-5-5---5-5-5-5-5-5| 
 
Chorus: 1 (dalawang beses ulitin ang chorus 1) 
e------------------------------5-----5---5------------| 
b-----------------------------------------------------| 
g--9-9-9-9-9-9-9-7-7-7-6-6-6-6---6-6---6---6-6-6------| 
d--7-7-7-7-7-7-7-7-7-7-4-4-4-4---4-4---4---4-4-4-7-7-7| 
a--5-5-5-5-5-5-5-5-5-5-4-4-4-4---4-4---4---4-4-4-4-4-4| 
D--0-0-0-0-0-0-0-0-0-0-4-4-4-4---4-4---4---4-4-4-4-4-4| 
 
e------------------------------------------------------------------| 
b------------------------------------------------------------------| 
g--4-4-4-----------------------------------------------------------| 
d--x-x-x-2-2-2-4-4-4-2-2-2-------9-9-9-9-12-12-12-11-11-11---------| 
a--5-5-5-5-5-5-5-5-5-5-5-5-------9-9-9-9-9--9--9--9--9--9--12-12-12| 
D--5-5-5-5-5-5-5-5-5-5-5-5--5/9--9-9-9-9-9--9--9--9--9--9--9--9--9-| 
 
(pagkatapos ng chorus 1) 
e-------------------------| 
b-------------------------| 
g-------------------------| 
d---------------9/7---4/5-| 
a---------5/7-------------| 
d---7/9-------------------| 
 
Verse 2: 
   PM-----     PM---------      PM------------- 
e-----------5---------------8------------------| 
b----------------------------------------------| 
g----------------------------7-----------------| 
d--5-5-5-5-----5-5-5-5-5-5------5-5-5-5-5-5-5-5| 
a--5-5-5-5-----5-5-5-5-5-5------5-5-5-5-5-5-5-5| 
D--5-5-5-5-----5-5-5-5-5-5------5-5-5-5-5-5-5-5| 
 
e---------------------------------------| 
b---------------------------------------| 
g--7-7-7----7/9---6--6-6/7---6---6-6----| 
d--x-x-x----x-----x--x-x-----x---x-x--7-| 
a--5-5-5----5/7---4--4-4/5---4---4-4--x-| 
D--0-0-0----0-----0--0-0-----0--------7-| 
 
   PM-----     PM---------      PM------------- 
e-----------5---------------8------------------| 
b----------------------------------------------| 
g----------------------------7-----------------| 
d--5-5-5-5-----5-5-5-5-5-5------5-5-5-5-5-5-5-5| 
a--5-5-5-5-----5-5-5-5-5-5------5-5-5-5-5-5-5-5| 
D--5-5-5-5-----5-5-5-5-5-5------5-5-5-5-5-5-5-5| 
 
e---------------------------------------------------------| 
b---------------------------------------------------------| 
g--7-7-7----7/9--9-9----9/11---11-11---11/12---11--11-11--| 
d--x-x-x----x----x-x----x------x--x----x-------x---x--x--7| 
a--5-5-5----5/7--7-7----7/9----9--9----9 /10---9---9--9---| 
D--0-0-0----0----0-0----0------0--0----0-------0---------7| 
 
e-------------------------------------------| 
b-------------------------------------------| 
g-------------------------------------------| 
d-------11-----11/12--11--------------------| x2 
a--9-9------9------------------9-----9/10--9| 
D--9-9------9-------------9-9-----9---------| 
 
e---------------------------------------| 
b---------------------------------------| 
g--7-7-7----7/9---6--6-6/7---6---6-6----| 
d--x-x-x----x-----x--x-x-----x---x-x--7-| 
a--5-5-5----5/7---4--4-4/5---4---4-4--x-| 
D--0-0-0----0-----0--0-0-----0--------7-| 
 
e-------------------------------------------| 
b-------------------------------------------| 
g-------------------------------------------| 
d-------11-----11/12--11--------------------| x2 
a--9-9------9------------------9-----9/10--9| 
D--9-9------9-------------9-9-----9---------| 
 
e-------------------------------------------------| 
b-------------------------------------------------| 
g-------------------------------------------------| 
d--5-5-5-5-5-----7/5-----7/5-----7/5--------------| 
a--5-5-5-5-5---------------------------5-5-5-5-5-5| 
D--5-5-5-5-5--5-------5-------5--------5-5-5-5-5-5| 
 
chorus: 2 (dalawang beses ulitin ang chorus 2) 
e------------------------------5-----5---5------------| 
b-----------------------------------------------------| 
g--9-9-9-9-9-9-9-7-7-7-6-6-6-6---6-6---6---6-6-6------| 
d--7-7-7-7-7-7-7-7-7-7-4-4-4-4---4-4---4---4-4-4-7-7-7| 
a--5-5-5-5-5-5-5-5-5-5-4-4-4-4---4-4---4---4-4-4-4-4-4| 
D--0-0-0-0-0-0-0-0-0-0-4-4-4-4---4-4---4---4-4-4-4-4-4| 
 
e------------------------------------------------------------------| 
b------------------------------------------------------------------| 
g--4-4-4-----------------------------------------------------------| 
d--x-x-x-2-2-2-4-4-4-2-2-2-------9-9-9-9-12-12-12-11-11-11---------| 
a--5-5-5-5-5-5-5-5-5-5-5-5-------9-9-9-9-9--9--9--9--9--9--12-12-12| 
D--5-5-5-5-5-5-5-5-5-5-5-5--5/9--9-9-9-9-9--9--9--9--9--9--9--9--9-| 
 
(pagkatapos ng chorus 2) 
e-------------------------------------------| 
b-------------------------------------------| 
g-------------------------------------------| 
d--9---9-7-0---7---7-5-0---5---5-4-0---2-2-2| 
a--9-----------7-----------5-----------2-2-2| 
D--9-----------7-----------5-----------2-2-2| 
 
e--------------------------------| 
b--------------------------------| 
g--------------------------------| 
d--2-2-2--4-4-4--5-5-5--9-9-9-9-9| 
a--2-2-2--4-4-4--5-5-5--9-9-9-9-9| 
D--2-2-2--4-4-4--5-5-5--9-9-9-9-9| 
 
e---------------------| 
b---------------------| 
g----------------7-6--| 
d--2-2-2--4-4-4--5---7| 
a--2-2-2--4-4-4--5----| 
D--2-2-2--4-4-4--5----| 
 
adlib: 
e--5----5---------0----0-----------------------| 
b--5---5-5--------5---5-5----------------------| 
g--7--7---7---7---6--6---6---2---2/4-----------| 
d--0--------------4--------------------2---2/4-| 
a----------------------------------------------| 
D----------------------------------------------| 
 
e-------------------------------| 
b-------------------------------| 
g-------------------------------| 
d---------------12-----11-------| 
a-----------------------------12| 
D--4---5/9---9------9------9----| 
 
e--5----5---------0----0-----------------------| 
b--5---5-5--------5---5-5----------------------| 
g--7--7---7---7---6--6---6---2---2/4-----------| 
d--0--------------4--------------------2---2/4-| 
a----------------------------------------------| 
D----------------------------------------------| 
 
e-------------------------------| 
b-------------------------------| 
g-------------------------------| 
d---------------12-----11-------| 
a-----------------------------12| 
D--4---5/9---9------9------9----| 
 
e-------------------------| 
b--10-10------------------| 
g-------------------------| 
d--------12-12-11-11-12-12| x8 
a-------------------------| 
D-------------------------| 
 
e-------------------------------------------| 
b-------------------------------------------| 
g--9-9-9-11-11-11-11-11-11------------------| 
d--x-x-x-x--x--x--x--x--x--2-2-2-4-4-4-4-4-4| 
a--7-7-7-9--9--9--9--9--9--4-4-4-4-4-4-4-4-4| 
D--0-0-0-0--0--0--0--0--0--4-4-4-4-4-4-4-4-4| 
 
e-------------------------------------------| 
b-------------------------------------------| 
g--------------------6-6-6-7-7-7-9-9-9-9-9-9| 
d--7-7-7-4-4-4-4-4-4-x-x-x-x-x-x-x-x-x-x-x-x| 
a--x-x-x-x-x-x-x-x-x-4-4-4-5-5-5-7-7-7-7-7-7| 
D--5-5-5-5-5-5-5-5-5------------------------| 
 
e-------------------------------------------| 
b-------------------------------------------| 
g--9-9-9-11-11-11-11-11-11------------------| 
d--x-x-x-x--x--x--x--x--x--2-2-2-4-4-4-4-4-4| 
a--7-7-7-9--9--9--9--9--9--4-4-4-4-4-4-4-4-4| 
D--0-0-0-0--0--0--0--0--0--4-4-4-4-4-4-4-4-4| 
 
e------------------------------------------------| 
b------------------------------------------------| 
g--------------------6-6-6-7-7-7-9-9-9-9-9-9---9-| 
d--7-7-7-4-4-4-4-4-4-x-x-x-x-x-x-x-x-x-x-x-x---x-| 
a--x-x-x-x-x-x-x-x-x-4-4-4-5-5-5-7-7-7-7-7-7---7-| 
D--5-5-5-5-5-5-5-5-5-----------------------------| 
 
(back to intro)
 
 

Видео