Typecast - The Infatuation Is Always There, аккорды

Прокрутка
Тональность
Шрифт
100
Drop  D  tuning

Intro: 
e-----------------------------------------------------| 
b-----------------------------------------------------| 
g------5-5-5--5-5-5-4-4---------9--9-------------9--9-| 
d--3-3-3-3-3--5-5-5-5-5--9-10-9-10-10--9-10-9-10-10-10| 
a--3-3-3-3-3--x-x-x-x-x--7-7--7-7--7---7-7--7-7--7--7-| 
D--3-3-3-3-3--5-5-5-5-5--7-7--7-7--7---7-7--7-7--7--7-| 
 
e--------------------------------------------------| 
b--------------------------------------------------| 
g------5-5-5--5-5-5-4-4---------9--9---------------| 
d--3-3-3-3-3--5-5-5-5-5--9-10-9-10-10--9-10-9-9-9-9| 
a--3-3-3-3-3--x-x-x-x-x--7-7--7-7--7---7-7--7-7-7-7| 
D--3-3-3-3-3--5-5-5-5-5--7-7--7-7--7---7-7--7-7-7-7| 
 
e-------------------------------------------------| 
b-------------------------------------------------| 
g------4-5-----4-5-----5------4-5-----4-5--7-5-4--| 
d-----------------------------------------------5-| 
a-------------------------------------------------| 
D--3-3-----3-3-----3-3----5-5-----5-5-------------| 
 
e-------------------------------------------| 
b------3-5-----3-5-----5-----3-5-----3-5-6-5| 
g------4-5-----4-5-----5-----4-5-----4-5-7-5| 
d-------------------------------------------| 
a--0-0-----0-0-----0-0---0-0-----0-0--------| 
D-------------------------------------------| 
 
e-------------------------------------------------| 
b-------------------------------------------------| 
g------4-5-----4-5-----5------4-5-----4-5--7-5-4--| 
d-----------------------------------------------5-| 
a-------------------------------------------------| 
D--3-3-----3-3-----3-3----5-5-----5-5-------------| 
 
e-------------------------------------------| 
b------3-5-----3-5-----5-----3-5-----3-5-6-5| 
g------4-5-----4-5-----5-----4-5-----4-5-7-5| 
d-------------------------------------------| 
a--0-0-----0-0-----0-0---0-0-----0-0--------| 
D-------------------------------------------| 
 
Verse: 
e-------------------0-------5| 
b-------------0--------------| 
g--0---------0-----0-------7-| 
d--2--------0-----2-----5-5--| 
a--3-------2-----0------5----| 
D-----------------------5----| 
 
e-------------------0------------------| 
b-------------0------------------------| 
g--0---------0-----0---7-7-7-7---------| 
d--2--------0-----2----5-5-5-5---------| 
a--3-------2-----0-----5-5-5-5---------| 
D----------------------5-5-5-5--5-7-5-0| 
 
Pre chorus: 
e-----------------------------------------------------| 
b-----------------------------------------------------| 
g------5-5-5--5-5-5-4-4---------9--9-------------9--9-| 
d--3-3-3-3-3--5-5-5-5-5--9-10-9-10-10--9-10-9-10-10-10| 
a--3-3-3-3-3--x-x-x-x-x--7-7--7-7--7---7-7--7-7--7--7-| 
D--3-3-3-3-3--5-5-5-5-5--7-7--7-7--7---7-7--7-7--7--7-| 
 
e--------------------------------------------------| 
b--------------------------------------------------| 
g------5-5-5--5-5-5-4-4---------9--9---------------| 
d--3-3-3-3-3--5-5-5-5-5--9-10-9-10-10--9-10-9-9-9-9| 
a--3-3-3-3-3--x-x-x-x-x--7-7--7-7--7---7-7--7-7-7-7| 
D--3-3-3-3-3--5-5-5-5-5--7-7--7-7--7---7-7--7-7-7-7| 
 
back to verse and pre chorus
 
Chorus: 1 
e------------------------------------------| 
b------------------------------------------| 
g-----------------------------9-----7-7-7-7| 
d--10-10-10---10-10-10---9-10-10----5-5-5-5| x2 
a--10-10-10---9--9--9----7----7-----5-5-5-5| 
D--10-10-10---9--9--9----7----7-----5-5-5-5| 
 
e-------------------------------------------------| 
b-------------------------------------------------| 
g------4-5-----4-5-----5------4-5-----4-5--7-5-4--| 
d-----------------------------------------------5-| 
a-------------------------------------------------| 
D--3-3-----3-3-----3-3----5-5-----5-5-------------| 
 
e-------------------------------------------| 
b------3-5-----3-5-----5-----3-5-----3-5-6-5| 
g------4-5-----4-5-----5-----4-5-----4-5-7-5| 
d-------------------------------------------| 
a--0-0-----0-0-----0-0---0-0-----0-0--------| 
D-------------------------------------------| 
 
e-------------------------------------------------| 
b-------------------------------------------------| 
g------4-5-----4-5-----5------4-5-----4-5--7-5-4--| 
d-----------------------------------------------5-| 
a-------------------------------------------------| 
D--3-3-----3-3-----3-3----5-5-----5-5-------------| 
 
e-------------------------------------------| 
b------3-5-----3-5-----5-----3-5-----3-5-6-5| 
g------4-5-----4-5-----5-----4-5-----4-5-7-5| 
d-------------------------------------------| 
a--0-0-----0-0-----0-0---0-0-----0-0--------| 
D-------------------------------------------| 
 
back to verse and pre chorus
 
Chorus: 2 
e------------------------------------------| 
b------------------------------------------| 
g-----------------------------9-----7-7-7-7| 
d--10-10-10---10-10-10---9-10-10----5-5-5-5| x4 
a--10-10-10---9--9--9----7----7-----5-5-5-5| 
D--10-10-10---9--9--9----7----7-----5-5-5-5| 
 
e-----------------------------------------------| 
b-----------------------------------------------| 
g------4-5-----4-5-----5------4-5-----4-5------5| 
d-----------------------------------------------| 
a-----------------------------------------------| 
D--3-3-----3-3-----3-3----5-5-----5-5------5-5--| 
 
e----------------------------------------------| 
b------3-5-----3-5-----5-----3-5-----3-5------5| 
g------4-5-----4-5-----5-----4-5-----4-5------5| 
d----------------------------------------------| 
a--0-0-----0-0-----0-0---0-0-----0-0------0-0--| 
D----------------------------------------------| 
 
e-------------------------------------------------| 
b-------------------------------------------------| 
g------4-5-----4-5-----5------4-5-----4-5--7-5-4--| 
d-----------------------------------------------5-| 
a-------------------------------------------------| 
D--3-3-----3-3-----3-3----5-5-----5-5-------------| 
 
e-------------------------------------------| 
b------3-5-----3-5-----5-----3-5-----3-5-6-5| 
g------4-5-----4-5-----5-----4-5-----4-5-7-5| 
d-------------------------------------------| 
a--0-0-----0-0-----0-0---0-0-----0-0--------| 
D-------------------------------------------| 
 
e--------------| 
b--------------| 
g--5------END--| 
d--5-----------| 
a--3-----------| 
D--------------|
 
 

Видео