U2 - Love Comes Tumbling, аккорды

Прокрутка
Тональность
Шрифт
100
Intro:(repeat)
  Em
[e-----------7-----------7-----------7-----------7-
b--8-----8-----8-----8-----8-----8-----8-----8----
g-----9-----------9-----------9-----------9-------
  Am
e------------7-----------7-----------7-----------7--
b--10----10----10----10----10----10----10----10-----
g------9-----------9-----------9-----------9--------]

Verses:		
Em      Am         Em
Love don't need to find a way,
Em   Am
You'll find your own way.
Em  Am          Em
I forget that you can stay,

   Am
And so I'll say that,
Em     Am    Em         Am
All roads lead to where you are,
Em      Am	   Em       Am
Love comes tumbling down again.

Chorus:		
D		Am		Em
Buh-Buh-Buh-Buh-Buh-Buh-Buh-Buh
D		Am		 Em
Buh-Buh-Buh-Buh-Buh-Buh-Buh-Buh	 Buh..Buh..Buh....

Repeat Intro riff.

Solo:		 Em      Am
[e-------------------------------------
b----8---------8--------10-------10---
g-9-----9---9-----9---9----9---9----9-
  Em         Am
e----7-------7-------10-------10----
b-----------------------------------
g--9---9---9---9---9----9---9----9--]
(Repeat above 2 lines 4X)

 Em           Am
[e-----------------------------------
b---8--------8--------8--------8----
g-9---9----9---9----9---9----9---9--]
(Repeat 4X)

Outro:
Alternating Em and Am chords.
 
 

Видео